ISO-10303-21;
HEADER;
FILE_DESCRIPTION (( 'STEP AP214' ),
    '1' );
FILE_NAME ('4DIN934m5e.STEP',
    '2014-08-13T08:10:27',
    ( '' ),
    ( '' ),
    'SwSTEP 2.0',
    'SolidWorks 2014',
    '' );
FILE_SCHEMA (( 'AUTOMOTIVE_DESIGN' ));
ENDSEC;

DATA;
#1 = UNCERTAINTY_MEASURE_WITH_UNIT (LENGTH_MEASURE( 1.000000000000000100E-005 ), #107, 'distance_accuracy_value', 'NONE');
#2 = FACE_OUTER_BOUND ( 'NONE', #101, .T. ) ;
#3 = ADVANCED_FACE ( 'NONE', ( #199 ), #246, .F. ) ;
#4 = PRODUCT_RELATED_PRODUCT_CATEGORY ( 'part', '', ( #5 ) ) ;
#5 = PRODUCT ( '4DIN934m5e', '4DIN934m5e', '', ( #113 ) ) ;
#6 = EDGE_LOOP ( 'NONE', ( #312, #161, #64, #62 ) ) ;
#7 = ADVANCED_FACE ( 'NONE', ( #2 ), #270, .F. ) ;
#8 = PRESENTATION_STYLE_ASSIGNMENT (( #138 ) ) ;
#9 = SURFACE_STYLE_FILL_AREA ( #141 ) ;
#10 = COLOUR_RGB ( '',0.7529411764705882200, 0.7529411764705882200, 0.7529411764705882200 ) ;
#11 = EDGE_CURVE ( 'NONE', #201, #293, #196, .T. ) ;
#12 = ADVANCED_FACE ( 'NONE', ( #148 ), #160, .F. ) ;
#13 = MANIFOLD_SOLID_BREP ( 'M5 Gewindebohrung1', #29 ) ;
#14 = PRODUCT_DEFINITION_CONTEXT ( 'detailed design', #331, 'design' ) ;
#15 = PRODUCT_DEFINITION_SHAPE ( 'NONE', 'NONE',  #20 ) ;
#16 = UNCERTAINTY_MEASURE_WITH_UNIT (LENGTH_MEASURE( 1.000000000000000100E-005 ), #158, 'distance_accuracy_value', 'NONE');
#17 = EDGE_LOOP ( 'NONE', ( #56, #256 ) ) ;
#18 = PRODUCT_DEFINITION_FORMATION_WITH_SPECIFIED_SOURCE ( 'ANY', '', #5, .NOT_KNOWN. ) ;
#19 = FACE_OUTER_BOUND ( 'NONE', #6, .T. ) ;
#20 = PRODUCT_DEFINITION ( 'UNKNOWN', '', #18, #14 ) ;
#21 = SHAPE_DEFINITION_REPRESENTATION ( #15, #108 ) ;
#22 = VECTOR ( 'NONE', #170, 1000.000000000000200 ) ;
#23 = EDGE_LOOP ( 'NONE', ( #96, #76, #210, #66 ) ) ;
#24 = VECTOR ( 'NONE', #187, 1000.000000000000200 ) ;
#25 = LINE ( 'NONE', #183, #22 ) ;
#26 = ORIENTED_EDGE ( 'NONE', *, *, #90, .T. ) ;
#27 = ORIENTED_EDGE ( 'NONE', *, *, #310, .T. ) ;
#28 = ORIENTED_EDGE ( 'NONE', *, *, #313, .F. ) ;
#29 = CLOSED_SHELL ( 'NONE', ( #97, #58, #177, #3, #192, #7, #216, #75, #89, #12 ) ) ;
#30 = AXIS2_PLACEMENT_3D ( 'NONE', #118, #115, #114 ) ;
#31 = VECTOR ( 'NONE', #193, 1000.000000000000000 ) ;
#32 = ORIENTED_EDGE ( 'NONE', *, *, #95, .T. ) ;
#33 = ORIENTED_EDGE ( 'NONE', *, *, #351, .F. ) ;
#34 = VERTEX_POINT ( 'NONE', #337 ) ;
#35 = ORIENTED_EDGE ( 'NONE', *, *, #11, .F. ) ;
#36 = ORIENTED_EDGE ( 'NONE', *, *, #314, .F. ) ;
#37 = ORIENTED_EDGE ( 'NONE', *, *, #277, .T. ) ;
#38 = VERTEX_POINT ( 'NONE', #338 ) ;
#39 = VECTOR ( 'NONE', #188, 1000.000000000000000 ) ;
#40 = LINE ( 'NONE', #197, #24 ) ;
#41 = VECTOR ( 'NONE', #204, 1000.000000000000100 ) ;
#42 = ORIENTED_EDGE ( 'NONE', *, *, #341, .F. ) ;
#43 = LINE ( 'NONE', #191, #39 ) ;
#44 = LINE ( 'NONE', #208, #31 ) ;
#45 = LINE ( 'NONE', #206, #41 ) ;
#46 = VECTOR ( 'NONE', #367, 1000.000000000000000 ) ;
#47 = LINE ( 'NONE', #209, #49 ) ;
#48 = VECTOR ( 'NONE', #237, 1000.000000000000000 ) ;
#49 = VECTOR ( 'NONE', #207, 1000.000000000000000 ) ;
#50 = VECTOR ( 'NONE', #214, 1000.000000000000000 ) ;
#51 = CARTESIAN_POINT ( 'NONE',  ( 4.618802153517016500, 0.0000000000000000000, 4.700000000000000200 ) ) ;
#52 = LINE ( 'NONE', #215, #46 ) ;
#53 = ORIENTED_EDGE ( 'NONE', *, *, #94, .T. ) ;
#54 = VECTOR ( 'NONE', #217, 1000.000000000000000 ) ;
#55 = LINE ( 'NONE', #219, #48 ) ;
#56 = ORIENTED_EDGE ( 'NONE', *, *, #73, .F. ) ;
#57 = EDGE_CURVE ( 'NONE', #201, #34, #163, .T. ) ;
#58 = ADVANCED_FACE ( 'NONE', ( #19 ), #369, .F. ) ;
#59 = VECTOR ( 'NONE', #230, 1000.000000000000000 ) ;
#60 = LINE ( 'NONE', #225, #50 ) ;
#61 = EDGE_CURVE ( 'NONE', #325, #360, #136, .T. ) ;
#62 = ORIENTED_EDGE ( 'NONE', *, *, #322, .T. ) ;
#63 = LINE ( 'NONE', #224, #54 ) ;
#64 = ORIENTED_EDGE ( 'NONE', *, *, #94, .F. ) ;
#65 = LINE ( 'NONE', #239, #59 ) ;
#66 = ORIENTED_EDGE ( 'NONE', *, *, #341, .T. ) ;
#67 = CIRCLE ( 'NONE', #167, 2.099999999999987200 ) ;
#68 =( GEOMETRIC_REPRESENTATION_CONTEXT ( 3 ) GLOBAL_UNCERTAINTY_ASSIGNED_CONTEXT ( ( #69 ) ) GLOBAL_UNIT_ASSIGNED_CONTEXT ( ( #137, #132, #120 ) ) REPRESENTATION_CONTEXT ( 'NONE', 'WORKASPACE' ) );
#69 = UNCERTAINTY_MEASURE_WITH_UNIT (LENGTH_MEASURE( 1.000000000000000100E-005 ), #137, 'distance_accuracy_value', 'NONE');
#70 = FACE_OUTER_BOUND ( 'NONE', #235, .T. ) ;
#71 = LINE ( 'NONE', #234, #72 ) ;
#72 = VECTOR ( 'NONE', #233, 1000.000000000000000 ) ;
#73 = EDGE_CURVE ( 'NONE', #117, #372, #147, .T. ) ;
#74 = LINE ( 'NONE', #255, #88 ) ;
#75 = ADVANCED_FACE ( 'NONE', ( #134, #102 ), #362, .T. ) ;
#76 = ORIENTED_EDGE ( 'NONE', *, *, #61, .F. ) ;
#77 = PRESENTATION_STYLE_ASSIGNMENT (( #151 ) ) ;
#78 = FACE_OUTER_BOUND ( 'NONE', #91, .T. ) ;
#79 = MECHANICAL_DESIGN_GEOMETRIC_PRESENTATION_REPRESENTATION (  '', ( #121 ), #68 ) ;
#80 = PRESENTATION_LAYER_ASSIGNMENT (  '', '', ( #121 ) ) ;
#81 = EDGE_CURVE ( 'NONE', #304, #122, #129, .T. ) ;
#82 = EDGE_LOOP ( 'NONE', ( #150, #363 ) ) ;
#83 = CIRCLE ( 'NONE', #162, 2.099999999999998300 ) ;
#84 = CYLINDRICAL_SURFACE ( 'NONE', #179, 2.099999999999992500 ) ;
#85 = FACE_OUTER_BOUND ( 'NONE', #290, .T. ) ;
#86 = VECTOR ( 'NONE', #274, 1000.000000000000000 ) ;
#87 = CARTESIAN_POINT ( 'NONE',  ( 2.309401076758522500, -4.000000000000024000, 4.700000000000000200 ) ) ;
#88 = VECTOR ( 'NONE', #254, 1000.000000000000000 ) ;
#89 = ADVANCED_FACE ( 'NONE', ( #130, #128 ), #358, .F. ) ;
#90 = EDGE_CURVE ( 'NONE', #38, #344, #124, .T. ) ;
#91 = EDGE_LOOP ( 'NONE', ( #253, #186, #348, #149 ) ) ;
#92 = SURFACE_STYLE_FILL_AREA ( #156 ) ;
#93 = VERTEX_POINT ( 'NONE', #321 ) ;
#94 = EDGE_CURVE ( 'NONE', #34, #38, #125, .T. ) ;
#95 = EDGE_CURVE ( 'NONE', #325, #257, #123, .T. ) ;
#96 = ORIENTED_EDGE ( 'NONE', *, *, #359, .T. ) ;
#97 = ADVANCED_FACE ( 'NONE', ( #131 ), #84, .F. ) ;
#98 = EDGE_CURVE ( 'NONE', #360, #371, #99, .T. ) ;
#99 = LINE ( 'NONE', #276, #86 ) ;
#100 = VECTOR ( 'NONE', #180, 1000.000000000000000 ) ;
#101 = EDGE_LOOP ( 'NONE', ( #202, #35, #305, #332 ) ) ;
#102 = FACE_OUTER_BOUND ( 'NONE', #135, .T. ) ;
#103 =( NAMED_UNIT ( * ) SI_UNIT ( $, .STERADIAN. ) SOLID_ANGLE_UNIT ( ) );
#104 = PRESENTATION_STYLE_ASSIGNMENT (( #296 ) ) ;
#105 = COLOUR_RGB ( '',0.7921568627450980000, 0.8196078431372548800, 0.9333333333333333500 ) ;
#106 = SURFACE_STYLE_FILL_AREA ( #299 ) ;
#107 =( LENGTH_UNIT ( ) NAMED_UNIT ( * ) SI_UNIT ( .MILLI., .METRE. ) );
#108 = ADVANCED_BREP_SHAPE_REPRESENTATION ( '4DIN934m5e', ( #13, #30 ), #127 ) ;
#109 = ORIENTED_EDGE ( 'NONE', *, *, #11, .T. ) ;
#110 = VERTEX_POINT ( 'NONE', #278 ) ;
#111 = VECTOR ( 'NONE', #308, 1000.000000000000000 ) ;
#112 = EDGE_LOOP ( 'NONE', ( #339, #143, #258, #200, #353, #301 ) ) ;
#113 = PRODUCT_CONTEXT ( 'NONE', #142, 'mechanical' ) ;
#114 = DIRECTION ( 'NONE',  ( 1.000000000000000000, 0.0000000000000000000, 0.0000000000000000000 ) ) ;
#115 = DIRECTION ( 'NONE',  ( 0.0000000000000000000, 0.0000000000000000000, 1.000000000000000000 ) ) ;
#116 = ORIENTED_EDGE ( 'NONE', *, *, #314, .T. ) ;
#117 = VERTEX_POINT ( 'NONE', #302 ) ;
#118 = CARTESIAN_POINT ( 'NONE',  ( 0.0000000000000000000, 0.0000000000000000000, 0.0000000000000000000 ) ) ;
#119 = VECTOR ( 'NONE', #303, 1000.000000000000000 ) ;
#120 =( NAMED_UNIT ( * ) SI_UNIT ( $, .STERADIAN. ) SOLID_ANGLE_UNIT ( ) );
#121 = STYLED_ITEM ( 'NONE', ( #8 ), #108 ) ;
#122 = VERTEX_POINT ( 'NONE', #271 ) ;
#123 = LINE ( 'NONE', #326, #119 ) ;
#124 = LINE ( 'NONE', #318, #126 ) ;
#125 = LINE ( 'NONE', #335, #111 ) ;
#126 = VECTOR ( 'NONE', #316, 1000.000000000000000 ) ;
#127 =( GEOMETRIC_REPRESENTATION_CONTEXT ( 3 ) GLOBAL_UNCERTAINTY_ASSIGNED_CONTEXT ( ( #16 ) ) GLOBAL_UNIT_ASSIGNED_CONTEXT ( ( #158, #153, #152 ) ) REPRESENTATION_CONTEXT ( 'NONE', 'WORKASPACE' ) );
#128 = FACE_OUTER_BOUND ( 'NONE', #112, .T. ) ;
#129 = CIRCLE ( 'NONE', #251, 2.099999999999998300 ) ;
#130 = FACE_BOUND ( 'NONE', #82, .T. ) ;
#131 = FACE_OUTER_BOUND ( 'NONE', #280, .T. ) ;
#132 =( NAMED_UNIT ( * ) PLANE_ANGLE_UNIT ( ) SI_UNIT ( $, .RADIAN. ) );
#133 = SURFACE_SIDE_STYLE ('',( #370 ) ) ;
#134 = FACE_BOUND ( 'NONE', #17, .T. ) ;
#135 = EDGE_LOOP ( 'NONE', ( #53, #26, #281, #32, #37, #309 ) ) ;
#136 = LINE ( 'NONE', #357, #159 ) ;
#137 =( LENGTH_UNIT ( ) NAMED_UNIT ( * ) SI_UNIT ( .MILLI., .METRE. ) );
#138 = SURFACE_STYLE_USAGE ( .BOTH. , #139 ) ;
#139 = SURFACE_SIDE_STYLE ('',( #9 ) ) ;
#140 =( NAMED_UNIT ( * ) PLANE_ANGLE_UNIT ( ) SI_UNIT ( $, .RADIAN. ) );
#141 = FILL_AREA_STYLE ('',( #174 ) ) ;
#142 = APPLICATION_CONTEXT ( 'automotive_design' ) ;
#143 = ORIENTED_EDGE ( 'NONE', *, *, #343, .F. ) ;
#144 = APPLICATION_PROTOCOL_DEFINITION ( 'draft international standard', 'automotive_design', 1998, #142 ) ;
#145 =( LENGTH_UNIT ( ) NAMED_UNIT ( * ) SI_UNIT ( .MILLI., .METRE. ) );
#146 = VECTOR ( 'NONE', #172, 1000.000000000000100 ) ;
#147 = CIRCLE ( 'NONE', #285, 2.099999999999987200 ) ;
#148 = FACE_OUTER_BOUND ( 'NONE', #236, .T. ) ;
#149 = ORIENTED_EDGE ( 'NONE', *, *, #61, .T. ) ;
#150 = ORIENTED_EDGE ( 'NONE', *, *, #81, .T. ) ;
#151 = SURFACE_STYLE_USAGE ( .BOTH. , #155 ) ;
#152 =( NAMED_UNIT ( * ) SI_UNIT ( $, .STERADIAN. ) SOLID_ANGLE_UNIT ( ) );
#153 =( NAMED_UNIT ( * ) PLANE_ANGLE_UNIT ( ) SI_UNIT ( $, .RADIAN. ) );
#154 = ORIENTED_EDGE ( 'NONE', *, *, #73, .T. ) ;
#155 = SURFACE_SIDE_STYLE ('',( #92 ) ) ;
#156 = FILL_AREA_STYLE ('',( #169 ) ) ;
#157 = CARTESIAN_POINT ( 'NONE',  ( -2.309401076758470100, -4.000000000000038200, 0.0000000000000000000 ) ) ;
#158 =( LENGTH_UNIT ( ) NAMED_UNIT ( * ) SI_UNIT ( .MILLI., .METRE. ) );
#159 = VECTOR ( 'NONE', #356, 1000.000000000000000 ) ;
#160 = CYLINDRICAL_SURFACE ( 'NONE', #279, 2.099999999999992500 ) ;
#161 = ORIENTED_EDGE ( 'NONE', *, *, #320, .F. ) ;
#162 = AXIS2_PLACEMENT_3D ( 'NONE', #223, #222, #221 ) ;
#163 = LINE ( 'NONE', #87, #146 ) ;
#164 = COLOUR_RGB ( '',0.7529411764705882200, 0.7529411764705882200, 0.7529411764705882200 ) ;
#165 = CARTESIAN_POINT ( 'NONE',  ( 2.309401076758492700, 4.000000000000007100, 0.0000000000000000000 ) ) ;
#166 = AXIS2_PLACEMENT_3D ( 'NONE', #245, #244, #243 ) ;
#167 = AXIS2_PLACEMENT_3D ( 'NONE', #228, #227, #226 ) ;
#168 = ORIENTED_EDGE ( 'NONE', *, *, #320, .T. ) ;
#169 = FILL_AREA_STYLE_COLOUR ( '', #164 ) ;
#170 = DIRECTION ( 'NONE',  ( -0.4999999999999965600, -0.8660254037844407100, 0.0000000000000000000 ) ) ;
#171 = AXIS2_PLACEMENT_3D ( 'NONE', #261, #252, #220 ) ;
#172 = DIRECTION ( 'NONE',  ( 0.4999999999999962800, 0.8660254037844408200, 0.0000000000000000000 ) ) ;
#173 = FILL_AREA_STYLE ('',( #229 ) ) ;
#174 = FILL_AREA_STYLE_COLOUR ( '', #10 ) ;
#175 = AXIS2_PLACEMENT_3D ( 'NONE', #267, #266, #264 ) ;
#176 =( NAMED_UNIT ( * ) SI_UNIT ( $, .STERADIAN. ) SOLID_ANGLE_UNIT ( ) );
#177 = ADVANCED_FACE ( 'NONE', ( #85 ), #282, .F. ) ;
#178 =( NAMED_UNIT ( * ) PLANE_ANGLE_UNIT ( ) SI_UNIT ( $, .RADIAN. ) );
#179 = AXIS2_PLACEMENT_3D ( 'NONE', #315, #300, #284 ) ;
#180 = DIRECTION ( 'NONE',  ( -0.0000000000000000000, -0.0000000000000000000, -1.000000000000000000 ) ) ;
#181 = SURFACE_STYLE_USAGE ( .BOTH. , #133 ) ;
#182 = CARTESIAN_POINT ( 'NONE',  ( 2.309401076758522500, -4.000000000000024000, 4.700000000000000200 ) ) ;
#183 = CARTESIAN_POINT ( 'NONE',  ( -2.309401076758508300, 3.999999999999993300, 0.0000000000000000000 ) ) ;
#184 = EDGE_CURVE ( 'NONE', #257, #371, #74, .T. ) ;
#185 = CARTESIAN_POINT ( 'NONE',  ( 0.0000000000000000000, 0.0000000000000000000, 4.700000000000000200 ) ) ;
#186 = ORIENTED_EDGE ( 'NONE', *, *, #184, .F. ) ;
#187 = DIRECTION ( 'NONE',  ( -0.4999999999999965600, -0.8660254037844407100, 0.0000000000000000000 ) ) ;
#188 = DIRECTION ( 'NONE',  ( 1.000000000000000000, 3.004629197474327500E-015, 0.0000000000000000000 ) ) ;
#189 = DIRECTION ( 'NONE',  ( -0.0000000000000000000, -0.0000000000000000000, 1.000000000000000000 ) ) ;
#190 = CARTESIAN_POINT ( 'NONE',  ( -4.618802153517003200, -2.854519510307944700E-014, 0.0000000000000000000 ) ) ;
#191 = CARTESIAN_POINT ( 'NONE',  ( -2.309401076758470100, -4.000000000000038200, 0.0000000000000000000 ) ) ;
#192 = ADVANCED_FACE ( 'NONE', ( #78 ), #273, .F. ) ;
#193 = DIRECTION ( 'NONE',  ( -0.0000000000000000000, -0.0000000000000000000, 1.000000000000000000 ) ) ;
#194 = PRESENTATION_STYLE_ASSIGNMENT (( #181 ) ) ;
#195 = COLOUR_RGB ( '',0.7921568627450980000, 0.8196078431372548800, 0.9333333333333333500 ) ;
#196 = LINE ( 'NONE', #182, #100 ) ;
#197 = CARTESIAN_POINT ( 'NONE',  ( -2.309401076758508300, 3.999999999999993300, 4.700000000000000200 ) ) ;
#198 = CARTESIAN_POINT ( 'NONE',  ( -2.099999999999987200, 2.571758278209429600E-016, 4.700000000000001100 ) ) ;
#199 = FACE_OUTER_BOUND ( 'NONE', #23, .T. ) ;
#200 = ORIENTED_EDGE ( 'NONE', *, *, #98, .F. ) ;
#201 = VERTEX_POINT ( 'NONE', #259 ) ;
#202 = ORIENTED_EDGE ( 'NONE', *, *, #352, .T. ) ;
#203 = ORIENTED_EDGE ( 'NONE', *, *, #90, .F. ) ;
#204 = DIRECTION ( 'NONE',  ( 0.4999999999999962800, 0.8660254037844408200, 0.0000000000000000000 ) ) ;
#205 = CARTESIAN_POINT ( 'NONE',  ( -2.309401076758508300, 3.999999999999993300, 4.700000000000000200 ) ) ;
#206 = CARTESIAN_POINT ( 'NONE',  ( 2.309401076758522500, -4.000000000000024000, 0.0000000000000000000 ) ) ;
#207 = DIRECTION ( 'NONE',  ( -0.0000000000000000000, -0.0000000000000000000, -1.000000000000000000 ) ) ;
#208 = CARTESIAN_POINT ( 'NONE',  ( 2.099999999999992500, 0.0000000000000000000, 4.700000000000000200 ) ) ;
#209 = CARTESIAN_POINT ( 'NONE',  ( -2.309401076758508300, 3.999999999999993300, 4.700000000000000200 ) ) ;
#210 = ORIENTED_EDGE ( 'NONE', *, *, #355, .F. ) ;
#211 =( GEOMETRIC_REPRESENTATION_CONTEXT ( 3 ) GLOBAL_UNCERTAINTY_ASSIGNED_CONTEXT ( ( #241 ) ) GLOBAL_UNIT_ASSIGNED_CONTEXT ( ( #295, #287, #286 ) ) REPRESENTATION_CONTEXT ( 'NONE', 'WORKASPACE' ) );
#212 = CARTESIAN_POINT ( 'NONE',  ( -4.618802153517003200, -2.854519510307944700E-014, 4.700000000000000200 ) ) ;
#213 = MECHANICAL_DESIGN_GEOMETRIC_PRESENTATION_REPRESENTATION (  '', ( #242 ), #211 ) ;
#214 = DIRECTION ( 'NONE',  ( -0.0000000000000000000, -0.0000000000000000000, -1.000000000000000000 ) ) ;
#215 = CARTESIAN_POINT ( 'NONE',  ( 2.309401076758492700, 4.000000000000007100, 0.0000000000000000000 ) ) ;
#216 = ADVANCED_FACE ( 'NONE', ( #70 ), #248, .F. ) ;
#217 = DIRECTION ( 'NONE',  ( -0.5000000000000027800, 0.8660254037844370400, 0.0000000000000000000 ) ) ;
#218 = PRESENTATION_LAYER_ASSIGNMENT (  '', '', ( #242 ) ) ;
#219 = CARTESIAN_POINT ( 'NONE',  ( 4.618802153517016500, 0.0000000000000000000, 4.700000000000000200 ) ) ;
#220 = DIRECTION ( 'NONE',  ( -0.5000000000000038900, 0.8660254037844363800, 0.0000000000000000000 ) ) ;
#221 = DIRECTION ( 'NONE',  ( 1.000000000000000000, 0.0000000000000000000, 0.0000000000000000000 ) ) ;
#222 = DIRECTION ( 'NONE',  ( -0.0000000000000000000, -0.0000000000000000000, 1.000000000000000000 ) ) ;
#223 = CARTESIAN_POINT ( 'NONE',  ( 0.0000000000000000000, 0.0000000000000000000, 8.673617379884035500E-016 ) ) ;
#224 = CARTESIAN_POINT ( 'NONE',  ( 4.618802153517016500, 0.0000000000000000000, 0.0000000000000000000 ) ) ;
#225 = CARTESIAN_POINT ( 'NONE',  ( 2.309401076758492700, 4.000000000000007100, 4.700000000000000200 ) ) ;
#226 = DIRECTION ( 'NONE',  ( 1.000000000000000000, 0.0000000000000000000, 0.0000000000000000000 ) ) ;
#227 = DIRECTION ( 'NONE',  ( -0.0000000000000000000, -0.0000000000000000000, 1.000000000000000000 ) ) ;
#228 = CARTESIAN_POINT ( 'NONE',  ( 0.0000000000000000000, 0.0000000000000000000, 4.700000000000001100 ) ) ;
#229 = FILL_AREA_STYLE_COLOUR ( '', #195 ) ;
#230 = DIRECTION ( 'NONE',  ( -0.0000000000000000000, -0.0000000000000000000, 1.000000000000000000 ) ) ;
#231 = CARTESIAN_POINT ( 'NONE',  ( 2.099999999999998300, 0.0000000000000000000, 8.673617379884035500E-016 ) ) ;
#232 = DIRECTION ( 'NONE',  ( -1.000000000000000000, -3.004629197474327500E-015, 0.0000000000000000000 ) ) ;
#233 = DIRECTION ( 'NONE',  ( 1.000000000000000000, 3.004629197474327500E-015, 0.0000000000000000000 ) ) ;
#234 = CARTESIAN_POINT ( 'NONE',  ( -2.309401076758470100, -4.000000000000038200, 4.700000000000000200 ) ) ;
#235 = EDGE_LOOP ( 'NONE', ( #323, #333, #249, #109 ) ) ;
#236 = EDGE_LOOP ( 'NONE', ( #36, #361, #317, #154 ) ) ;
#237 = DIRECTION ( 'NONE',  ( -0.0000000000000000000, -0.0000000000000000000, -1.000000000000000000 ) ) ;
#238 = AXIS2_PLACEMENT_3D ( 'NONE', #336, #328, #327 ) ;
#239 = CARTESIAN_POINT ( 'NONE',  ( -2.099999999999992500, 2.571758278209432600E-016, 4.700000000000000200 ) ) ;
#240 = DIRECTION ( 'NONE',  ( -3.004629197474327500E-015, 1.000000000000000000, 0.0000000000000000000 ) ) ;
#241 = UNCERTAINTY_MEASURE_WITH_UNIT (LENGTH_MEASURE( 1.000000000000000100E-005 ), #295, 'distance_accuracy_value', 'NONE');
#242 = STYLED_ITEM ( 'NONE', ( #104 ), #97 ) ;
#243 = DIRECTION ( 'NONE',  ( -0.4999999999999962300, -0.8660254037844408200, 0.0000000000000000000 ) ) ;
#244 = DIRECTION ( 'NONE',  ( -0.8660254037844408200, 0.4999999999999962300, 0.0000000000000000000 ) ) ;
#245 = CARTESIAN_POINT ( 'NONE',  ( 2.309401076758522500, -4.000000000000024000, 4.700000000000000200 ) ) ;
#246 = PLANE ( 'NONE',  #306 ) ;
#247 = CARTESIAN_POINT ( 'NONE',  ( -2.309401076758470100, -4.000000000000038200, 4.700000000000000200 ) ) ;
#248 = PLANE ( 'NONE',  #166 ) ;
#249 = ORIENTED_EDGE ( 'NONE', *, *, #57, .F. ) ;
#250 = AXIS2_PLACEMENT_3D ( 'NONE', #350, #345, #342 ) ;
#251 = AXIS2_PLACEMENT_3D ( 'NONE', #334, #330, #329 ) ;
#252 = DIRECTION ( 'NONE',  ( 0.8660254037844363800, 0.5000000000000038900, -0.0000000000000000000 ) ) ;
#253 = ORIENTED_EDGE ( 'NONE', *, *, #98, .T. ) ;
#254 = DIRECTION ( 'NONE',  ( -0.0000000000000000000, -0.0000000000000000000, -1.000000000000000000 ) ) ;
#255 = CARTESIAN_POINT ( 'NONE',  ( -2.309401076758470100, -4.000000000000038200, 4.700000000000000200 ) ) ;
#256 = ORIENTED_EDGE ( 'NONE', *, *, #310, .F. ) ;
#257 = VERTEX_POINT ( 'NONE', #247 ) ;
#258 = ORIENTED_EDGE ( 'NONE', *, *, #352, .F. ) ;
#259 = CARTESIAN_POINT ( 'NONE',  ( 2.309401076758522500, -4.000000000000024000, 4.700000000000000200 ) ) ;
#260 = ORIENTED_EDGE ( 'NONE', *, *, #324, .T. ) ;
#261 = CARTESIAN_POINT ( 'NONE',  ( -4.618802153517003200, -2.854519510307944700E-014, 4.700000000000000200 ) ) ;
#262 = CARTESIAN_POINT ( 'NONE',  ( -2.309401076758508300, 3.999999999999993300, 4.700000000000000200 ) ) ;
#263 = CARTESIAN_POINT ( 'NONE',  ( 2.309401076758522500, -4.000000000000024000, 0.0000000000000000000 ) ) ;
#264 = DIRECTION ( 'NONE',  ( 1.000000000000000000, 3.004629197474321600E-015, 0.0000000000000000000 ) ) ;
#265 = AXIS2_PLACEMENT_3D ( 'NONE', #51, #368, #365 ) ;
#266 = DIRECTION ( 'NONE',  ( 3.004629197474321600E-015, -1.000000000000000000, 0.0000000000000000000 ) ) ;
#267 = CARTESIAN_POINT ( 'NONE',  ( 2.309401076758492700, 4.000000000000007100, 4.700000000000000200 ) ) ;
#268 =( GEOMETRIC_REPRESENTATION_CONTEXT ( 3 ) GLOBAL_UNCERTAINTY_ASSIGNED_CONTEXT ( ( #366 ) ) GLOBAL_UNIT_ASSIGNED_CONTEXT ( ( #145, #140, #103 ) ) REPRESENTATION_CONTEXT ( 'NONE', 'WORKASPACE' ) );
#269 = MECHANICAL_DESIGN_GEOMETRIC_PRESENTATION_REPRESENTATION (  '', ( #275 ), #268 ) ;
#270 = PLANE ( 'NONE',  #294 ) ;
#271 = CARTESIAN_POINT ( 'NONE',  ( -2.099999999999998300, 2.571758278209439500E-016, 8.673617379884035500E-016 ) ) ;
#272 = PRESENTATION_LAYER_ASSIGNMENT (  '', '', ( #275 ) ) ;
#273 = PLANE ( 'NONE',  #171 ) ;
#274 = DIRECTION ( 'NONE',  ( 0.5000000000000038900, -0.8660254037844364900, 0.0000000000000000000 ) ) ;
#275 = STYLED_ITEM ( 'NONE', ( #77 ), #13 ) ;
#276 = CARTESIAN_POINT ( 'NONE',  ( -4.618802153517003200, -2.854519510307944700E-014, 0.0000000000000000000 ) ) ;
#277 = EDGE_CURVE ( 'NONE', #257, #201, #71, .T. ) ;
#278 = CARTESIAN_POINT ( 'NONE',  ( -2.309401076758508300, 3.999999999999993300, 0.0000000000000000000 ) ) ;
#279 = AXIS2_PLACEMENT_3D ( 'NONE', #185, #189, #340 ) ;
#280 = EDGE_LOOP ( 'NONE', ( #28, #116, #27, #33 ) ) ;
#281 = ORIENTED_EDGE ( 'NONE', *, *, #355, .T. ) ;
#282 = PLANE ( 'NONE',  #175 ) ;
#283 = CARTESIAN_POINT ( 'NONE',  ( -2.309401076758470100, -4.000000000000038200, 4.700000000000000200 ) ) ;
#284 = DIRECTION ( 'NONE',  ( 1.000000000000000000, 0.0000000000000000000, 0.0000000000000000000 ) ) ;
#285 = AXIS2_PLACEMENT_3D ( 'NONE', #349, #347, #346 ) ;
#286 =( NAMED_UNIT ( * ) SI_UNIT ( $, .STERADIAN. ) SOLID_ANGLE_UNIT ( ) );
#287 =( NAMED_UNIT ( * ) PLANE_ANGLE_UNIT ( ) SI_UNIT ( $, .RADIAN. ) );
#288 =( GEOMETRIC_REPRESENTATION_CONTEXT ( 3 ) GLOBAL_UNCERTAINTY_ASSIGNED_CONTEXT ( ( #1 ) ) GLOBAL_UNIT_ASSIGNED_CONTEXT ( ( #107, #178, #176 ) ) REPRESENTATION_CONTEXT ( 'NONE', 'WORKASPACE' ) );
#289 = MECHANICAL_DESIGN_GEOMETRIC_PRESENTATION_REPRESENTATION (  '', ( #298 ), #288 ) ;
#290 = EDGE_LOOP ( 'NONE', ( #260, #42, #203, #168 ) ) ;
#291 = PRESENTATION_LAYER_ASSIGNMENT (  '', '', ( #298 ) ) ;
#292 = DIRECTION ( 'NONE',  ( 0.4999999999999965000, 0.8660254037844407100, 0.0000000000000000000 ) ) ;
#293 = VERTEX_POINT ( 'NONE', #263 ) ;
#294 = AXIS2_PLACEMENT_3D ( 'NONE', #283, #240, #232 ) ;
#295 =( LENGTH_UNIT ( ) NAMED_UNIT ( * ) SI_UNIT ( .MILLI., .METRE. ) );
#296 = SURFACE_STYLE_USAGE ( .BOTH. , #297 ) ;
#297 = SURFACE_SIDE_STYLE ('',( #106 ) ) ;
#298 = STYLED_ITEM ( 'NONE', ( #194 ), #12 ) ;
#299 = FILL_AREA_STYLE ('',( #307 ) ) ;
#300 = DIRECTION ( 'NONE',  ( -0.0000000000000000000, -0.0000000000000000000, 1.000000000000000000 ) ) ;
#301 = ORIENTED_EDGE ( 'NONE', *, *, #324, .F. ) ;
#302 = CARTESIAN_POINT ( 'NONE',  ( 2.099999999999987200, 0.0000000000000000000, 4.700000000000001100 ) ) ;
#303 = DIRECTION ( 'NONE',  ( 0.5000000000000038900, -0.8660254037844364900, 0.0000000000000000000 ) ) ;
#304 = VERTEX_POINT ( 'NONE', #231 ) ;
#305 = ORIENTED_EDGE ( 'NONE', *, *, #277, .F. ) ;
#306 = AXIS2_PLACEMENT_3D ( 'NONE', #262, #311, #292 ) ;
#307 = FILL_AREA_STYLE_COLOUR ( '', #105 ) ;
#308 = DIRECTION ( 'NONE',  ( -0.5000000000000027800, 0.8660254037844370400, 0.0000000000000000000 ) ) ;
#309 = ORIENTED_EDGE ( 'NONE', *, *, #57, .T. ) ;
#310 = EDGE_CURVE ( 'NONE', #372, #117, #67, .T. ) ;
#311 = DIRECTION ( 'NONE',  ( 0.8660254037844407100, -0.4999999999999965000, 0.0000000000000000000 ) ) ;
#312 = ORIENTED_EDGE ( 'NONE', *, *, #319, .T. ) ;
#313 = EDGE_CURVE ( 'NONE', #122, #304, #83, .T. ) ;
#314 = EDGE_CURVE ( 'NONE', #122, #372, #65, .T. ) ;
#315 = CARTESIAN_POINT ( 'NONE',  ( 0.0000000000000000000, 0.0000000000000000000, 4.700000000000000200 ) ) ;
#316 = DIRECTION ( 'NONE',  ( -1.000000000000000000, -3.004629197474322000E-015, 0.0000000000000000000 ) ) ;
#317 = ORIENTED_EDGE ( 'NONE', *, *, #351, .T. ) ;
#318 = CARTESIAN_POINT ( 'NONE',  ( 2.309401076758492700, 4.000000000000007100, 4.700000000000000200 ) ) ;
#319 = EDGE_CURVE ( 'NONE', #93, #364, #63, .T. ) ;
#320 = EDGE_CURVE ( 'NONE', #38, #364, #60, .T. ) ;
#321 = CARTESIAN_POINT ( 'NONE',  ( 4.618802153517016500, 0.0000000000000000000, 0.0000000000000000000 ) ) ;
#322 = EDGE_CURVE ( 'NONE', #34, #93, #55, .T. ) ;
#323 = ORIENTED_EDGE ( 'NONE', *, *, #343, .T. ) ;
#324 = EDGE_CURVE ( 'NONE', #364, #110, #52, .T. ) ;
#325 = VERTEX_POINT ( 'NONE', #212 ) ;
#326 = CARTESIAN_POINT ( 'NONE',  ( -4.618802153517003200, -2.854519510307944700E-014, 4.700000000000000200 ) ) ;
#327 = DIRECTION ( 'NONE',  ( 1.000000000000000000, 0.0000000000000000000, -0.0000000000000000000 ) ) ;
#328 = DIRECTION ( 'NONE',  ( 0.0000000000000000000, 0.0000000000000000000, 1.000000000000000000 ) ) ;
#329 = DIRECTION ( 'NONE',  ( 1.000000000000000000, 0.0000000000000000000, 0.0000000000000000000 ) ) ;
#330 = DIRECTION ( 'NONE',  ( -0.0000000000000000000, -0.0000000000000000000, 1.000000000000000000 ) ) ;
#331 = APPLICATION_CONTEXT ( 'automotive_design' ) ;
#332 = ORIENTED_EDGE ( 'NONE', *, *, #184, .T. ) ;
#333 = ORIENTED_EDGE ( 'NONE', *, *, #322, .F. ) ;
#334 = CARTESIAN_POINT ( 'NONE',  ( 0.0000000000000000000, 0.0000000000000000000, 8.673617379884035500E-016 ) ) ;
#335 = CARTESIAN_POINT ( 'NONE',  ( 4.618802153517016500, 0.0000000000000000000, 4.700000000000000200 ) ) ;
#336 = CARTESIAN_POINT ( 'NONE',  ( 0.0000000000000000000, 0.0000000000000000000, 0.0000000000000000000 ) ) ;
#337 = CARTESIAN_POINT ( 'NONE',  ( 4.618802153517016500, 0.0000000000000000000, 4.700000000000000200 ) ) ;
#338 = CARTESIAN_POINT ( 'NONE',  ( 2.309401076758492700, 4.000000000000007100, 4.700000000000000200 ) ) ;
#339 = ORIENTED_EDGE ( 'NONE', *, *, #319, .F. ) ;
#340 = DIRECTION ( 'NONE',  ( 1.000000000000000000, 0.0000000000000000000, 0.0000000000000000000 ) ) ;
#341 = EDGE_CURVE ( 'NONE', #344, #110, #47, .T. ) ;
#342 = DIRECTION ( 'NONE',  ( 1.000000000000000000, 0.0000000000000000000, -0.0000000000000000000 ) ) ;
#343 = EDGE_CURVE ( 'NONE', #293, #93, #45, .T. ) ;
#344 = VERTEX_POINT ( 'NONE', #205 ) ;
#345 = DIRECTION ( 'NONE',  ( 0.0000000000000000000, 0.0000000000000000000, 1.000000000000000000 ) ) ;
#346 = DIRECTION ( 'NONE',  ( 1.000000000000000000, 0.0000000000000000000, 0.0000000000000000000 ) ) ;
#347 = DIRECTION ( 'NONE',  ( -0.0000000000000000000, -0.0000000000000000000, 1.000000000000000000 ) ) ;
#348 = ORIENTED_EDGE ( 'NONE', *, *, #95, .F. ) ;
#349 = CARTESIAN_POINT ( 'NONE',  ( 0.0000000000000000000, 0.0000000000000000000, 4.700000000000001100 ) ) ;
#350 = CARTESIAN_POINT ( 'NONE',  ( 0.0000000000000000000, 0.0000000000000000000, 4.700000000000000200 ) ) ;
#351 = EDGE_CURVE ( 'NONE', #304, #117, #44, .T. ) ;
#352 = EDGE_CURVE ( 'NONE', #371, #293, #43, .T. ) ;
#353 = ORIENTED_EDGE ( 'NONE', *, *, #359, .F. ) ;
#354 = APPLICATION_PROTOCOL_DEFINITION ( 'draft international standard', 'automotive_design', 1998, #331 ) ;
#355 = EDGE_CURVE ( 'NONE', #344, #325, #40, .T. ) ;
#356 = DIRECTION ( 'NONE',  ( -0.0000000000000000000, -0.0000000000000000000, -1.000000000000000000 ) ) ;
#357 = CARTESIAN_POINT ( 'NONE',  ( -4.618802153517003200, -2.854519510307944700E-014, 4.700000000000000200 ) ) ;
#358 = PLANE ( 'NONE',  #238 ) ;
#359 = EDGE_CURVE ( 'NONE', #110, #360, #25, .T. ) ;
#360 = VERTEX_POINT ( 'NONE', #190 ) ;
#361 = ORIENTED_EDGE ( 'NONE', *, *, #81, .F. ) ;
#362 = PLANE ( 'NONE',  #250 ) ;
#363 = ORIENTED_EDGE ( 'NONE', *, *, #313, .T. ) ;
#364 = VERTEX_POINT ( 'NONE', #165 ) ;
#365 = DIRECTION ( 'NONE',  ( 0.5000000000000028900, -0.8660254037844370400, 0.0000000000000000000 ) ) ;
#366 = UNCERTAINTY_MEASURE_WITH_UNIT (LENGTH_MEASURE( 1.000000000000000100E-005 ), #145, 'distance_accuracy_value', 'NONE');
#367 = DIRECTION ( 'NONE',  ( -1.000000000000000000, -3.004629197474322000E-015, 0.0000000000000000000 ) ) ;
#368 = DIRECTION ( 'NONE',  ( -0.8660254037844370400, -0.5000000000000028900, 0.0000000000000000000 ) ) ;
#369 = PLANE ( 'NONE',  #265 ) ;
#370 = SURFACE_STYLE_FILL_AREA ( #173 ) ;
#371 = VERTEX_POINT ( 'NONE', #157 ) ;
#372 = VERTEX_POINT ( 'NONE', #198 ) ;
ENDSEC;
END-ISO-10303-21;
