ISO-10303-21;
HEADER;
FILE_DESCRIPTION (( 'STEP AP214' ),
    '1' );
FILE_NAME ('4din934m14m.STEP',
    '2014-08-13T08:14:30',
    ( '' ),
    ( '' ),
    'SwSTEP 2.0',
    'SolidWorks 2014',
    '' );
FILE_SCHEMA (( 'AUTOMOTIVE_DESIGN' ));
ENDSEC;

DATA;
#1 = ADVANCED_FACE ( 'NONE', ( #141 ), #307, .F. ) ;
#2 = LINE ( 'NONE', #269, #343 ) ;
#3 = VECTOR ( 'NONE', #334, 1000.000000000000000 ) ;
#4 = CIRCLE ( 'NONE', #70, 6.000000000000000900 ) ;
#5 = VECTOR ( 'NONE', #292, 1000.000000000000000 ) ;
#6 = LINE ( 'NONE', #372, #21 ) ;
#7 = PRODUCT_DEFINITION_CONTEXT ( 'detailed design', #177, 'design' ) ;
#8 = LINE ( 'NONE', #204, #62 ) ;
#9 = VECTOR ( 'NONE', #366, 1000.000000000000200 ) ;
#10 = LINE ( 'NONE', #110, #230 ) ;
#11 = FACE_OUTER_BOUND ( 'NONE', #87, .T. ) ;
#12 = PRODUCT ( '4din934m14m', '4din934m14m', '', ( #219 ) ) ;
#13 = PRESENTATION_LAYER_ASSIGNMENT (  '', '', ( #189 ) ) ;
#14 = ORIENTED_EDGE ( 'NONE', *, *, #71, .F. ) ;
#15 = ORIENTED_EDGE ( 'NONE', *, *, #167, .T. ) ;
#16 = ADVANCED_FACE ( 'NONE', ( #52 ), #363, .F. ) ;
#17 = FACE_BOUND ( 'NONE', #33, .T. ) ;
#18 = CARTESIAN_POINT ( 'NONE',  ( -6.350852961085867500, -11.00000000000001600, 11.00000000000000000 ) ) ;
#19 = STYLED_ITEM ( 'NONE', ( #205 ), #285 ) ;
#20 = VECTOR ( 'NONE', #277, 1000.000000000000000 ) ;
#21 = VECTOR ( 'NONE', #350, 1000.000000000000000 ) ;
#22 = LINE ( 'NONE', #248, #282 ) ;
#23 = DIRECTION ( 'NONE',  ( -0.0000000000000000000, -0.0000000000000000000, -1.000000000000000000 ) ) ;
#24 = MECHANICAL_DESIGN_GEOMETRIC_PRESENTATION_REPRESENTATION (  '', ( #19 ), #49 ) ;
#25 = FACE_OUTER_BOUND ( 'NONE', #178, .T. ) ;
#26 = LINE ( 'NONE', #348, #27 ) ;
#27 = VECTOR ( 'NONE', #274, 1000.000000000000000 ) ;
#28 = SURFACE_STYLE_FILL_AREA ( #365 ) ;
#29 = LINE ( 'NONE', #310, #153 ) ;
#30 = ADVANCED_FACE ( 'NONE', ( #176, #17 ), #142, .F. ) ;
#31 = ORIENTED_EDGE ( 'NONE', *, *, #71, .T. ) ;
#32 = LINE ( 'NONE', #264, #169 ) ;
#33 = EDGE_LOOP ( 'NONE', ( #222, #46 ) ) ;
#34 = ORIENTED_EDGE ( 'NONE', *, *, #340, .T. ) ;
#35 = VERTEX_POINT ( 'NONE', #336 ) ;
#36 = VERTEX_POINT ( 'NONE', #295 ) ;
#37 = ORIENTED_EDGE ( 'NONE', *, *, #217, .T. ) ;
#38 = VECTOR ( 'NONE', #341, 1000.000000000000100 ) ;
#39 = ORIENTED_EDGE ( 'NONE', *, *, #146, .F. ) ;
#40 = ORIENTED_EDGE ( 'NONE', *, *, #192, .T. ) ;
#41 = ORIENTED_EDGE ( 'NONE', *, *, #174, .F. ) ;
#42 = AXIS2_PLACEMENT_3D ( 'NONE', #354, #135, #328 ) ;
#43 = ORIENTED_EDGE ( 'NONE', *, *, #131, .F. ) ;
#44 = ORIENTED_EDGE ( 'NONE', *, *, #263, .T. ) ;
#45 = ORIENTED_EDGE ( 'NONE', *, *, #367, .F. ) ;
#46 = ORIENTED_EDGE ( 'NONE', *, *, #174, .T. ) ;
#47 = ORIENTED_EDGE ( 'NONE', *, *, #337, .F. ) ;
#48 = ORIENTED_EDGE ( 'NONE', *, *, #199, .T. ) ;
#49 =( GEOMETRIC_REPRESENTATION_CONTEXT ( 3 ) GLOBAL_UNCERTAINTY_ASSIGNED_CONTEXT ( ( #76 ) ) GLOBAL_UNIT_ASSIGNED_CONTEXT ( ( #210, #190, #214 ) ) REPRESENTATION_CONTEXT ( 'NONE', 'WORKASPACE' ) );
#50 = EDGE_LOOP ( 'NONE', ( #53, #314, #57, #245, #39, #73 ) ) ;
#51 = ORIENTED_EDGE ( 'NONE', *, *, #162, .F. ) ;
#52 = FACE_OUTER_BOUND ( 'NONE', #332, .T. ) ;
#53 = ORIENTED_EDGE ( 'NONE', *, *, #137, .F. ) ;
#54 = UNCERTAINTY_MEASURE_WITH_UNIT (LENGTH_MEASURE( 1.000000000000000100E-005 ), #262, 'distance_accuracy_value', 'NONE');
#55 = LINE ( 'NONE', #270, #20 ) ;
#56 = ORIENTED_EDGE ( 'NONE', *, *, #322, .T. ) ;
#57 = ORIENTED_EDGE ( 'NONE', *, *, #194, .F. ) ;
#58 = ORIENTED_EDGE ( 'NONE', *, *, #217, .F. ) ;
#59 = ORIENTED_EDGE ( 'NONE', *, *, #131, .T. ) ;
#60 = ORIENTED_EDGE ( 'NONE', *, *, #356, .F. ) ;
#61 = VERTEX_POINT ( 'NONE', #300 ) ;
#62 = VECTOR ( 'NONE', #304, 1000.000000000000100 ) ;
#63 = ORIENTED_EDGE ( 'NONE', *, *, #192, .F. ) ;
#64 = DIRECTION ( 'NONE',  ( 0.0000000000000000000, 0.0000000000000000000, 1.000000000000000000 ) ) ;
#65 = ORIENTED_EDGE ( 'NONE', *, *, #344, .T. ) ;
#66 = ADVANCED_FACE ( 'NONE', ( #195 ), #290, .F. ) ;
#67 = ORIENTED_EDGE ( 'NONE', *, *, #367, .T. ) ;
#68 = CIRCLE ( 'NONE', #159, 6.000000000000000900 ) ;
#69 =( GEOMETRIC_REPRESENTATION_CONTEXT ( 3 ) GLOBAL_UNCERTAINTY_ASSIGNED_CONTEXT ( ( #54 ) ) GLOBAL_UNIT_ASSIGNED_CONTEXT ( ( #262, #216, #257 ) ) REPRESENTATION_CONTEXT ( 'NONE', 'WORKASPACE' ) );
#70 = AXIS2_PLACEMENT_3D ( 'NONE', #291, #246, #284 ) ;
#71 = EDGE_CURVE ( 'NONE', #116, #191, #2, .T. ) ;
#72 = MECHANICAL_DESIGN_GEOMETRIC_PRESENTATION_REPRESENTATION (  '', ( #189 ), #97 ) ;
#73 = ORIENTED_EDGE ( 'NONE', *, *, #263, .F. ) ;
#74 = AXIS2_PLACEMENT_3D ( 'NONE', #352, #95, #317 ) ;
#75 = COLOUR_RGB ( '',0.7529411764705882200, 0.7529411764705882200, 0.7529411764705882200 ) ;
#76 = UNCERTAINTY_MEASURE_WITH_UNIT (LENGTH_MEASURE( 1.000000000000000100E-005 ), #210, 'distance_accuracy_value', 'NONE');
#77 = EDGE_LOOP ( 'NONE', ( #148, #260, #65, #41 ) ) ;
#78 = AXIS2_PLACEMENT_3D ( 'NONE', #302, #327, #278 ) ;
#79 = ADVANCED_FACE ( 'NONE', ( #124 ), #150, .F. ) ;
#80 = PRODUCT_DEFINITION_SHAPE ( 'NONE', 'NONE',  #147 ) ;
#81 = FACE_BOUND ( 'NONE', #180, .T. ) ;
#82 = VERTEX_POINT ( 'NONE', #113 ) ;
#83 = AXIS2_PLACEMENT_3D ( 'NONE', #161, #362, #265 ) ;
#84 = PRESENTATION_LAYER_ASSIGNMENT (  '', '', ( #19 ) ) ;
#85 = FILL_AREA_STYLE ('',( #369 ) ) ;
#86 = ORIENTED_EDGE ( 'NONE', *, *, #267, .T. ) ;
#87 = EDGE_LOOP ( 'NONE', ( #160, #58, #114, #67 ) ) ;
#88 = EDGE_LOOP ( 'NONE', ( #44, #106, #109, #86 ) ) ;
#89 = LINE ( 'NONE', #18, #121 ) ;
#90 = CIRCLE ( 'NONE', #93, 6.000000000000000900 ) ;
#91 = AXIS2_PLACEMENT_3D ( 'NONE', #288, #319, #208 ) ;
#92 = ORIENTED_EDGE ( 'NONE', *, *, #267, .F. ) ;
#93 = AXIS2_PLACEMENT_3D ( 'NONE', #125, #321, #139 ) ;
#94 = MECHANICAL_DESIGN_GEOMETRIC_PRESENTATION_REPRESENTATION (  '', ( #187 ), #96 ) ;
#95 = DIRECTION ( 'NONE',  ( -0.0000000000000000000, -0.0000000000000000000, -1.000000000000000000 ) ) ;
#96 =( GEOMETRIC_REPRESENTATION_CONTEXT ( 3 ) GLOBAL_UNCERTAINTY_ASSIGNED_CONTEXT ( ( #312 ) ) GLOBAL_UNIT_ASSIGNED_CONTEXT ( ( #233, #225, #223 ) ) REPRESENTATION_CONTEXT ( 'NONE', 'WORKASPACE' ) );
#97 =( GEOMETRIC_REPRESENTATION_CONTEXT ( 3 ) GLOBAL_UNCERTAINTY_ASSIGNED_CONTEXT ( ( #316 ) ) GLOBAL_UNIT_ASSIGNED_CONTEXT ( ( #320, #318, #301 ) ) REPRESENTATION_CONTEXT ( 'NONE', 'WORKASPACE' ) );
#98 = SHAPE_DEFINITION_REPRESENTATION ( #80, #119 ) ;
#99 = SURFACE_STYLE_USAGE ( .BOTH. , #126 ) ;
#100 = ADVANCED_FACE ( 'NONE', ( #25, #81 ), #185, .T. ) ;
#101 = VERTEX_POINT ( 'NONE', #158 ) ;
#102 = FACE_OUTER_BOUND ( 'NONE', #163, .T. ) ;
#103 = EDGE_LOOP ( 'NONE', ( #234, #47, #14, #111 ) ) ;
#104 = AXIS2_PLACEMENT_3D ( 'NONE', #353, #64, #275 ) ;
#105 = DIRECTION ( 'NONE',  ( 0.0000000000000000000, 1.000000000000000000, 0.0000000000000000000 ) ) ;
#106 = ORIENTED_EDGE ( 'NONE', *, *, #130, .F. ) ;
#107 = PRODUCT_RELATED_PRODUCT_CATEGORY ( 'part', '', ( #12 ) ) ;
#108 = DIRECTION ( 'NONE',  ( 0.8660254037844384900, 0.5000000000000004400, -0.0000000000000000000 ) ) ;
#109 = ORIENTED_EDGE ( 'NONE', *, *, #340, .F. ) ;
#110 = CARTESIAN_POINT ( 'NONE',  ( 6.350852961085888800, -11.00000000000001600, 11.00000000000000000 ) ) ;
#111 = ORIENTED_EDGE ( 'NONE', *, *, #130, .T. ) ;
#112 = CARTESIAN_POINT ( 'NONE',  ( 6.000000000000000900, 7.347880794884120700E-016, 11.00000000000000000 ) ) ;
#113 = CARTESIAN_POINT ( 'NONE',  ( -6.350852961085871100, 11.00000000000000400, 11.00000000000000000 ) ) ;
#114 = ORIENTED_EDGE ( 'NONE', *, *, #134, .F. ) ;
#115 = DIRECTION ( 'NONE',  ( 0.5000000000000002200, 0.8660254037844384900, 0.0000000000000000000 ) ) ;
#116 = VERTEX_POINT ( 'NONE', #276 ) ;
#117 = AXIS2_PLACEMENT_3D ( 'NONE', #215, #108, #315 ) ;
#118 = ORIENTED_EDGE ( 'NONE', *, *, #344, .F. ) ;
#119 = ADVANCED_BREP_SHAPE_REPRESENTATION ( '4din934m14m', ( #272, #183 ), #69 ) ;
#120 = CARTESIAN_POINT ( 'NONE',  ( -6.350852961085871100, 11.00000000000000400, 11.00000000000000000 ) ) ;
#121 = VECTOR ( 'NONE', #227, 1000.000000000000000 ) ;
#122 = CARTESIAN_POINT ( 'NONE',  ( -6.350852961085867500, -11.00000000000001600, 0.0000000000000000000 ) ) ;
#123 = STYLED_ITEM ( 'NONE', ( #155 ), #16 ) ;
#124 = FACE_OUTER_BOUND ( 'NONE', #268, .T. ) ;
#125 = CARTESIAN_POINT ( 'NONE',  ( 0.0000000000000000000, 0.0000000000000000000, 11.00000000000000000 ) ) ;
#126 = SURFACE_SIDE_STYLE ('',( #28 ) ) ;
#127 = CARTESIAN_POINT ( 'NONE',  ( -12.70170592217176300, -4.554236533233672800E-015, 11.00000000000000000 ) ) ;
#128 = ORIENTED_EDGE ( 'NONE', *, *, #179, .T. ) ;
#129 = VERTEX_POINT ( 'NONE', #122 ) ;
#130 = EDGE_CURVE ( 'NONE', #116, #324, #26, .T. ) ;
#131 = EDGE_CURVE ( 'NONE', #347, #61, #89, .T. ) ;
#132 = DIRECTION ( 'NONE',  ( 0.0000000000000000000, -1.000000000000000000, 0.0000000000000000000 ) ) ;
#133 = PRESENTATION_STYLE_ASSIGNMENT (( #197 ) ) ;
#134 = EDGE_CURVE ( 'NONE', #82, #228, #289, .T. ) ;
#135 = DIRECTION ( 'NONE',  ( -0.8660254037844387100, 0.4999999999999998300, 0.0000000000000000000 ) ) ;
#136 = MECHANICAL_DESIGN_GEOMETRIC_PRESENTATION_REPRESENTATION (  '', ( #123 ), #279 ) ;
#137 = EDGE_CURVE ( 'NONE', #129, #201, #55, .T. ) ;
#138 = LINE ( 'NONE', #338, #361 ) ;
#139 = DIRECTION ( 'NONE',  ( 1.000000000000000000, 0.0000000000000000000, 0.0000000000000000000 ) ) ;
#140 = SURFACE_STYLE_FILL_AREA ( #237 ) ;
#141 = FACE_OUTER_BOUND ( 'NONE', #88, .T. ) ;
#142 = PLANE ( 'NONE',  #299 ) ;
#143 = LINE ( 'NONE', #258, #3 ) ;
#144 = VECTOR ( 'NONE', #296, 1000.000000000000000 ) ;
#145 = COLOUR_RGB ( '',0.7529411764705882200, 0.7529411764705882200, 0.7529411764705882200 ) ;
#146 = EDGE_CURVE ( 'NONE', #324, #280, #22, .T. ) ;
#147 = PRODUCT_DEFINITION ( 'UNKNOWN', '', #193, #7 ) ;
#148 = ORIENTED_EDGE ( 'NONE', *, *, #198, .F. ) ;
#149 = CARTESIAN_POINT ( 'NONE',  ( 6.350852961085881700, 11.00000000000000400, 11.00000000000000000 ) ) ;
#150 = PLANE ( 'NONE',  #241 ) ;
#151 = VECTOR ( 'NONE', #308, 1000.000000000000100 ) ;
#152 = SURFACE_STYLE_USAGE ( .BOTH. , #253 ) ;
#153 = VECTOR ( 'NONE', #23, 1000.000000000000000 ) ;
#154 = ADVANCED_FACE ( 'NONE', ( #297 ), #342, .F. ) ;
#155 = PRESENTATION_STYLE_ASSIGNMENT (( #152 ) ) ;
#156 = LINE ( 'NONE', #305, #144 ) ;
#157 = VECTOR ( 'NONE', #326, 1000.000000000000000 ) ;
#158 = CARTESIAN_POINT ( 'NONE',  ( -6.000000000000000900, 0.0000000000000000000, 11.00000000000000000 ) ) ;
#159 = AXIS2_PLACEMENT_3D ( 'NONE', #355, #357, #196 ) ;
#160 = ORIENTED_EDGE ( 'NONE', *, *, #194, .T. ) ;
#161 = CARTESIAN_POINT ( 'NONE',  ( 0.0000000000000000000, 0.0000000000000000000, 11.00000000000000000 ) ) ;
#162 = EDGE_CURVE ( 'NONE', #281, #101, #68, .T. ) ;
#163 = EDGE_LOOP ( 'NONE', ( #48, #63, #331, #37 ) ) ;
#164 = LINE ( 'NONE', #273, #151 ) ;
#165 = LINE ( 'NONE', #168, #5 ) ;
#166 = EDGE_LOOP ( 'NONE', ( #206, #92, #43, #40 ) ) ;
#167 = EDGE_CURVE ( 'NONE', #101, #281, #90, .T. ) ;
#168 = CARTESIAN_POINT ( 'NONE',  ( 6.350852961085881700, 11.00000000000000400, 11.00000000000000000 ) ) ;
#169 = VECTOR ( 'NONE', #364, 1000.000000000000200 ) ;
#170 = ORIENTED_EDGE ( 'NONE', *, *, #173, .T. ) ;
#171 = CYLINDRICAL_SURFACE ( 'NONE', #74, 6.000000000000000900 ) ;
#172 = LINE ( 'NONE', #323, #175 ) ;
#173 = EDGE_CURVE ( 'NONE', #191, #82, #165, .T. ) ;
#174 = EDGE_CURVE ( 'NONE', #182, #35, #243, .T. ) ;
#175 = VECTOR ( 'NONE', #313, 1000.000000000000000 ) ;
#176 = FACE_OUTER_BOUND ( 'NONE', #50, .T. ) ;
#177 = APPLICATION_CONTEXT ( 'automotive_design' ) ;
#178 = EDGE_LOOP ( 'NONE', ( #59, #34, #31, #170, #287, #56 ) ) ;
#179 = EDGE_CURVE ( 'NONE', #280, #249, #6, .T. ) ;
#180 = EDGE_LOOP ( 'NONE', ( #330, #51 ) ) ;
#181 = PRESENTATION_LAYER_ASSIGNMENT (  '', '', ( #187 ) ) ;
#182 = VERTEX_POINT ( 'NONE', #371 ) ;
#183 = AXIS2_PLACEMENT_3D ( 'NONE', #235, #221, #220 ) ;
#184 = SURFACE_STYLE_FILL_AREA ( #335 ) ;
#185 = PLANE ( 'NONE',  #83 ) ;
#186 = ADVANCED_FACE ( 'NONE', ( #102 ), #242, .F. ) ;
#187 = STYLED_ITEM ( 'NONE', ( #133 ), #119 ) ;
#188 = DIRECTION ( 'NONE',  ( 0.0000000000000000000, -0.0000000000000000000, -1.000000000000000000 ) ) ;
#189 = STYLED_ITEM ( 'NONE', ( #250 ), #272 ) ;
#190 =( NAMED_UNIT ( * ) PLANE_ANGLE_UNIT ( ) SI_UNIT ( $, .RADIAN. ) );
#191 = VERTEX_POINT ( 'NONE', #149 ) ;
#192 = EDGE_CURVE ( 'NONE', #347, #129, #252, .T. ) ;
#193 = PRODUCT_DEFINITION_FORMATION_WITH_SPECIFIED_SOURCE ( 'ANY', '', #12, .NOT_KNOWN. ) ;
#194 = EDGE_CURVE ( 'NONE', #249, #36, #138, .T. ) ;
#195 = FACE_OUTER_BOUND ( 'NONE', #103, .T. ) ;
#196 = DIRECTION ( 'NONE',  ( 1.000000000000000000, 0.0000000000000000000, 0.0000000000000000000 ) ) ;
#197 = SURFACE_STYLE_USAGE ( .BOTH. , #236 ) ;
#198 = EDGE_CURVE ( 'NONE', #281, #182, #29, .T. ) ;
#199 = EDGE_CURVE ( 'NONE', #36, #129, #32, .T. ) ;
#200 = LINE ( 'NONE', #203, #9 ) ;
#201 = VERTEX_POINT ( 'NONE', #202 ) ;
#202 = CARTESIAN_POINT ( 'NONE',  ( 6.350852961085888800, -11.00000000000001600, 0.0000000000000000000 ) ) ;
#203 = CARTESIAN_POINT ( 'NONE',  ( -12.70170592217176300, -4.554236533233672800E-015, 11.00000000000000000 ) ) ;
#204 = CARTESIAN_POINT ( 'NONE',  ( 6.350852961085888800, -11.00000000000001600, 0.0000000000000000000 ) ) ;
#205 = PRESENTATION_STYLE_ASSIGNMENT (( #99 ) ) ;
#206 = ORIENTED_EDGE ( 'NONE', *, *, #137, .T. ) ;
#207 = DIRECTION ( 'NONE',  ( 0.0000000000000000000, -0.0000000000000000000, 1.000000000000000000 ) ) ;
#208 = DIRECTION ( 'NONE',  ( -1.000000000000000000, 0.0000000000000000000, 0.0000000000000000000 ) ) ;
#209 = APPLICATION_PROTOCOL_DEFINITION ( 'draft international standard', 'automotive_design', 1998, #177 ) ;
#210 =( LENGTH_UNIT ( ) NAMED_UNIT ( * ) SI_UNIT ( .MILLI., .METRE. ) );
#211 = FILL_AREA_STYLE_COLOUR ( '', #359 ) ;
#212 = UNCERTAINTY_MEASURE_WITH_UNIT (LENGTH_MEASURE( 1.000000000000000100E-005 ), #309, 'distance_accuracy_value', 'NONE');
#213 = ORIENTED_EDGE ( 'NONE', *, *, #198, .T. ) ;
#214 =( NAMED_UNIT ( * ) SI_UNIT ( $, .STERADIAN. ) SOLID_ANGLE_UNIT ( ) );
#215 = CARTESIAN_POINT ( 'NONE',  ( -12.70170592217176300, -4.554236533233672800E-015, 11.00000000000000000 ) ) ;
#216 =( NAMED_UNIT ( * ) PLANE_ANGLE_UNIT ( ) SI_UNIT ( $, .RADIAN. ) );
#217 = EDGE_CURVE ( 'NONE', #228, #36, #358, .T. ) ;
#218 = ORIENTED_EDGE ( 'NONE', *, *, #173, .F. ) ;
#219 = PRODUCT_CONTEXT ( 'NONE', #240, 'mechanical' ) ;
#220 = DIRECTION ( 'NONE',  ( 1.000000000000000000, 0.0000000000000000000, 0.0000000000000000000 ) ) ;
#221 = DIRECTION ( 'NONE',  ( 0.0000000000000000000, 0.0000000000000000000, 1.000000000000000000 ) ) ;
#222 = ORIENTED_EDGE ( 'NONE', *, *, #356, .T. ) ;
#223 =( NAMED_UNIT ( * ) SI_UNIT ( $, .STERADIAN. ) SOLID_ANGLE_UNIT ( ) );
#224 = PRESENTATION_LAYER_ASSIGNMENT (  '', '', ( #123 ) ) ;
#225 =( NAMED_UNIT ( * ) PLANE_ANGLE_UNIT ( ) SI_UNIT ( $, .RADIAN. ) );
#226 = CARTESIAN_POINT ( 'NONE',  ( -6.350852961085867500, -11.00000000000001600, 11.00000000000000000 ) ) ;
#227 = DIRECTION ( 'NONE',  ( 1.000000000000000000, 0.0000000000000000000, 0.0000000000000000000 ) ) ;
#228 = VERTEX_POINT ( 'NONE', #127 ) ;
#229 = AXIS2_PLACEMENT_3D ( 'NONE', #120, #325, #115 ) ;
#230 = VECTOR ( 'NONE', #283, 1000.000000000000000 ) ;
#231 = ADVANCED_FACE ( 'NONE', ( #11 ), #349, .F. ) ;
#232 = DIRECTION ( 'NONE',  ( -0.0000000000000000000, -0.0000000000000000000, -1.000000000000000000 ) ) ;
#233 =( LENGTH_UNIT ( ) NAMED_UNIT ( * ) SI_UNIT ( .MILLI., .METRE. ) );
#234 = ORIENTED_EDGE ( 'NONE', *, *, #146, .T. ) ;
#235 = CARTESIAN_POINT ( 'NONE',  ( 0.0000000000000000000, 0.0000000000000000000, 0.0000000000000000000 ) ) ;
#236 = SURFACE_SIDE_STYLE ('',( #140 ) ) ;
#237 = FILL_AREA_STYLE ('',( #238 ) ) ;
#238 = FILL_AREA_STYLE_COLOUR ( '', #145 ) ;
#239 = AXIS2_PLACEMENT_3D ( 'NONE', #247, #105, #207 ) ;
#240 = APPLICATION_CONTEXT ( 'automotive_design' ) ;
#241 = AXIS2_PLACEMENT_3D ( 'NONE', #311, #132, #188 ) ;
#242 = PLANE ( 'NONE',  #117 ) ;
#243 = CIRCLE ( 'NONE', #104, 6.000000000000000900 ) ;
#244 = ORIENTED_EDGE ( 'NONE', *, *, #337, .T. ) ;
#245 = ORIENTED_EDGE ( 'NONE', *, *, #179, .F. ) ;
#246 = DIRECTION ( 'NONE',  ( 0.0000000000000000000, 0.0000000000000000000, 1.000000000000000000 ) ) ;
#247 = CARTESIAN_POINT ( 'NONE',  ( -6.350852961085867500, -11.00000000000001600, 11.00000000000000000 ) ) ;
#248 = CARTESIAN_POINT ( 'NONE',  ( 12.70170592217177100, -1.431719560349498400E-014, 0.0000000000000000000 ) ) ;
#249 = VERTEX_POINT ( 'NONE', #293 ) ;
#250 = PRESENTATION_STYLE_ASSIGNMENT (( #370 ) ) ;
#251 = COLOUR_RGB ( '',0.7529411764705882200, 0.7529411764705882200, 0.7529411764705882200 ) ;
#252 = LINE ( 'NONE', #226, #157 ) ;
#253 = SURFACE_SIDE_STYLE ('',( #184 ) ) ;
#254 = APPLICATION_PROTOCOL_DEFINITION ( 'draft international standard', 'automotive_design', 1998, #240 ) ;
#255 = SURFACE_SIDE_STYLE ('',( #256 ) ) ;
#256 = SURFACE_STYLE_FILL_AREA ( #85 ) ;
#257 =( NAMED_UNIT ( * ) SI_UNIT ( $, .STERADIAN. ) SOLID_ANGLE_UNIT ( ) );
#258 = CARTESIAN_POINT ( 'NONE',  ( -6.350852961085871100, 11.00000000000000400, 11.00000000000000000 ) ) ;
#259 = FACE_OUTER_BOUND ( 'NONE', #77, .T. ) ;
#260 = ORIENTED_EDGE ( 'NONE', *, *, #162, .T. ) ;
#261 = CLOSED_SHELL ( 'NONE', ( #16, #100, #30, #154, #1, #66, #79, #231, #186, #285 ) ) ;
#262 =( LENGTH_UNIT ( ) NAMED_UNIT ( * ) SI_UNIT ( .MILLI., .METRE. ) );
#263 = EDGE_CURVE ( 'NONE', #201, #324, #8, .T. ) ;
#264 = CARTESIAN_POINT ( 'NONE',  ( -12.70170592217176300, -4.554236533233672800E-015, 0.0000000000000000000 ) ) ;
#265 = DIRECTION ( 'NONE',  ( 1.000000000000000000, 0.0000000000000000000, -0.0000000000000000000 ) ) ;
#266 = DIRECTION ( 'NONE',  ( -0.5000000000000003300, -0.8660254037844384900, 0.0000000000000000000 ) ) ;
#267 = EDGE_CURVE ( 'NONE', #61, #201, #10, .T. ) ;
#268 = EDGE_LOOP ( 'NONE', ( #128, #45, #218, #244 ) ) ;
#269 = CARTESIAN_POINT ( 'NONE',  ( 12.70170592217177100, -1.431719560349498400E-014, 11.00000000000000000 ) ) ;
#270 = CARTESIAN_POINT ( 'NONE',  ( -6.350852961085867500, -11.00000000000001600, 0.0000000000000000000 ) ) ;
#271 = DIRECTION ( 'NONE',  ( 0.0000000000000000000, 0.0000000000000000000, 1.000000000000000000 ) ) ;
#272 = MANIFOLD_SOLID_BREP ( 'Boss-Extrude1', #261 ) ;
#273 = CARTESIAN_POINT ( 'NONE',  ( 6.350852961085888800, -11.00000000000001600, 11.00000000000000000 ) ) ;
#274 = DIRECTION ( 'NONE',  ( -0.0000000000000000000, -0.0000000000000000000, -1.000000000000000000 ) ) ;
#275 = DIRECTION ( 'NONE',  ( 1.000000000000000000, 0.0000000000000000000, 0.0000000000000000000 ) ) ;
#276 = CARTESIAN_POINT ( 'NONE',  ( 12.70170592217177100, -1.431719560349498400E-014, 11.00000000000000000 ) ) ;
#277 = DIRECTION ( 'NONE',  ( 1.000000000000000000, 0.0000000000000000000, 0.0000000000000000000 ) ) ;
#278 = DIRECTION ( 'NONE',  ( 0.4999999999999997200, -0.8660254037844388200, 0.0000000000000000000 ) ) ;
#279 =( GEOMETRIC_REPRESENTATION_CONTEXT ( 3 ) GLOBAL_UNCERTAINTY_ASSIGNED_CONTEXT ( ( #212 ) ) GLOBAL_UNIT_ASSIGNED_CONTEXT ( ( #309, #306, #329 ) ) REPRESENTATION_CONTEXT ( 'NONE', 'WORKASPACE' ) );
#280 = VERTEX_POINT ( 'NONE', #368 ) ;
#281 = VERTEX_POINT ( 'NONE', #112 ) ;
#282 = VECTOR ( 'NONE', #346, 1000.000000000000000 ) ;
#283 = DIRECTION ( 'NONE',  ( -0.0000000000000000000, -0.0000000000000000000, -1.000000000000000000 ) ) ;
#284 = DIRECTION ( 'NONE',  ( 1.000000000000000000, 0.0000000000000000000, 0.0000000000000000000 ) ) ;
#285 = ADVANCED_FACE ( 'NONE', ( #259 ), #171, .F. ) ;
#286 = CARTESIAN_POINT ( 'NONE',  ( -6.350852961085871100, 11.00000000000000400, 11.00000000000000000 ) ) ;
#287 = ORIENTED_EDGE ( 'NONE', *, *, #134, .T. ) ;
#288 = CARTESIAN_POINT ( 'NONE',  ( 0.0000000000000000000, 0.0000000000000000000, 11.00000000000000000 ) ) ;
#289 = LINE ( 'NONE', #286, #38 ) ;
#290 = PLANE ( 'NONE',  #78 ) ;
#291 = CARTESIAN_POINT ( 'NONE',  ( 0.0000000000000000000, 0.0000000000000000000, 0.0000000000000000000 ) ) ;
#292 = DIRECTION ( 'NONE',  ( -1.000000000000000000, 0.0000000000000000000, 0.0000000000000000000 ) ) ;
#293 = CARTESIAN_POINT ( 'NONE',  ( -6.350852961085871100, 11.00000000000000400, 0.0000000000000000000 ) ) ;
#294 = VECTOR ( 'NONE', #232, 1000.000000000000000 ) ;
#295 = CARTESIAN_POINT ( 'NONE',  ( -12.70170592217176300, -4.554236533233672800E-015, 0.0000000000000000000 ) ) ;
#296 = DIRECTION ( 'NONE',  ( -0.0000000000000000000, -0.0000000000000000000, -1.000000000000000000 ) ) ;
#297 = FACE_OUTER_BOUND ( 'NONE', #166, .T. ) ;
#298 = DIRECTION ( 'NONE',  ( 1.000000000000000000, 0.0000000000000000000, -0.0000000000000000000 ) ) ;
#299 = AXIS2_PLACEMENT_3D ( 'NONE', #303, #271, #298 ) ;
#300 = CARTESIAN_POINT ( 'NONE',  ( 6.350852961085888800, -11.00000000000001600, 11.00000000000000000 ) ) ;
#301 =( NAMED_UNIT ( * ) SI_UNIT ( $, .STERADIAN. ) SOLID_ANGLE_UNIT ( ) );
#302 = CARTESIAN_POINT ( 'NONE',  ( 12.70170592217177100, -1.431719560349498400E-014, 11.00000000000000000 ) ) ;
#303 = CARTESIAN_POINT ( 'NONE',  ( 0.0000000000000000000, 0.0000000000000000000, 0.0000000000000000000 ) ) ;
#304 = DIRECTION ( 'NONE',  ( 0.4999999999999997800, 0.8660254037844387100, 0.0000000000000000000 ) ) ;
#305 = CARTESIAN_POINT ( 'NONE',  ( -6.000000000000000900, 0.0000000000000000000, 11.00000000000000000 ) ) ;
#306 =( NAMED_UNIT ( * ) PLANE_ANGLE_UNIT ( ) SI_UNIT ( $, .RADIAN. ) );
#307 = PLANE ( 'NONE',  #42 ) ;
#308 = DIRECTION ( 'NONE',  ( 0.4999999999999997800, 0.8660254037844387100, 0.0000000000000000000 ) ) ;
#309 =( LENGTH_UNIT ( ) NAMED_UNIT ( * ) SI_UNIT ( .MILLI., .METRE. ) );
#310 = CARTESIAN_POINT ( 'NONE',  ( 6.000000000000000900, 7.347880794884120700E-016, 11.00000000000000000 ) ) ;
#311 = CARTESIAN_POINT ( 'NONE',  ( 6.350852961085881700, 11.00000000000000400, 11.00000000000000000 ) ) ;
#312 = UNCERTAINTY_MEASURE_WITH_UNIT (LENGTH_MEASURE( 1.000000000000000100E-005 ), #233, 'distance_accuracy_value', 'NONE');
#313 = DIRECTION ( 'NONE',  ( -0.0000000000000000000, -0.0000000000000000000, -1.000000000000000000 ) ) ;
#314 = ORIENTED_EDGE ( 'NONE', *, *, #199, .F. ) ;
#315 = DIRECTION ( 'NONE',  ( -0.5000000000000003300, 0.8660254037844383700, 0.0000000000000000000 ) ) ;
#316 = UNCERTAINTY_MEASURE_WITH_UNIT (LENGTH_MEASURE( 1.000000000000000100E-005 ), #320, 'distance_accuracy_value', 'NONE');
#317 = DIRECTION ( 'NONE',  ( -1.000000000000000000, 0.0000000000000000000, 0.0000000000000000000 ) ) ;
#318 =( NAMED_UNIT ( * ) PLANE_ANGLE_UNIT ( ) SI_UNIT ( $, .RADIAN. ) );
#319 = DIRECTION ( 'NONE',  ( -0.0000000000000000000, -0.0000000000000000000, -1.000000000000000000 ) ) ;
#320 =( LENGTH_UNIT ( ) NAMED_UNIT ( * ) SI_UNIT ( .MILLI., .METRE. ) );
#321 = DIRECTION ( 'NONE',  ( 0.0000000000000000000, 0.0000000000000000000, 1.000000000000000000 ) ) ;
#322 = EDGE_CURVE ( 'NONE', #228, #347, #200, .T. ) ;
#323 = CARTESIAN_POINT ( 'NONE',  ( 6.350852961085881700, 11.00000000000000400, 11.00000000000000000 ) ) ;
#324 = VERTEX_POINT ( 'NONE', #345 ) ;
#325 = DIRECTION ( 'NONE',  ( 0.8660254037844386000, -0.5000000000000003300, 0.0000000000000000000 ) ) ;
#326 = DIRECTION ( 'NONE',  ( -0.0000000000000000000, -0.0000000000000000000, -1.000000000000000000 ) ) ;
#327 = DIRECTION ( 'NONE',  ( -0.8660254037844388200, -0.4999999999999997200, 0.0000000000000000000 ) ) ;
#328 = DIRECTION ( 'NONE',  ( -0.4999999999999998300, -0.8660254037844387100, 0.0000000000000000000 ) ) ;
#329 =( NAMED_UNIT ( * ) SI_UNIT ( $, .STERADIAN. ) SOLID_ANGLE_UNIT ( ) );
#330 = ORIENTED_EDGE ( 'NONE', *, *, #167, .F. ) ;
#331 = ORIENTED_EDGE ( 'NONE', *, *, #322, .F. ) ;
#332 = EDGE_LOOP ( 'NONE', ( #15, #213, #60, #118 ) ) ;
#333 = CARTESIAN_POINT ( 'NONE',  ( -6.350852961085867500, -11.00000000000001600, 11.00000000000000000 ) ) ;
#334 = DIRECTION ( 'NONE',  ( -0.0000000000000000000, -0.0000000000000000000, -1.000000000000000000 ) ) ;
#335 = FILL_AREA_STYLE ('',( #360 ) ) ;
#336 = CARTESIAN_POINT ( 'NONE',  ( -6.000000000000000900, 0.0000000000000000000, 0.0000000000000000000 ) ) ;
#337 = EDGE_CURVE ( 'NONE', #191, #280, #172, .T. ) ;
#338 = CARTESIAN_POINT ( 'NONE',  ( -6.350852961085871100, 11.00000000000000400, 0.0000000000000000000 ) ) ;
#339 = DIRECTION ( 'NONE',  ( -0.4999999999999997200, 0.8660254037844388200, 0.0000000000000000000 ) ) ;
#340 = EDGE_CURVE ( 'NONE', #61, #116, #164, .T. ) ;
#341 = DIRECTION ( 'NONE',  ( -0.5000000000000003300, -0.8660254037844384900, 0.0000000000000000000 ) ) ;
#342 = PLANE ( 'NONE',  #239 ) ;
#343 = VECTOR ( 'NONE', #339, 1000.000000000000000 ) ;
#344 = EDGE_CURVE ( 'NONE', #101, #35, #156, .T. ) ;
#345 = CARTESIAN_POINT ( 'NONE',  ( 12.70170592217177100, -1.431719560349498400E-014, 0.0000000000000000000 ) ) ;
#346 = DIRECTION ( 'NONE',  ( -0.4999999999999997200, 0.8660254037844388200, 0.0000000000000000000 ) ) ;
#347 = VERTEX_POINT ( 'NONE', #333 ) ;
#348 = CARTESIAN_POINT ( 'NONE',  ( 12.70170592217177100, -1.431719560349498400E-014, 11.00000000000000000 ) ) ;
#349 = PLANE ( 'NONE',  #229 ) ;
#350 = DIRECTION ( 'NONE',  ( -1.000000000000000000, 0.0000000000000000000, 0.0000000000000000000 ) ) ;
#351 = CARTESIAN_POINT ( 'NONE',  ( -12.70170592217176300, -4.554236533233672800E-015, 11.00000000000000000 ) ) ;
#352 = CARTESIAN_POINT ( 'NONE',  ( 0.0000000000000000000, 0.0000000000000000000, 11.00000000000000000 ) ) ;
#353 = CARTESIAN_POINT ( 'NONE',  ( 0.0000000000000000000, 0.0000000000000000000, 0.0000000000000000000 ) ) ;
#354 = CARTESIAN_POINT ( 'NONE',  ( 6.350852961085888800, -11.00000000000001600, 11.00000000000000000 ) ) ;
#355 = CARTESIAN_POINT ( 'NONE',  ( 0.0000000000000000000, 0.0000000000000000000, 11.00000000000000000 ) ) ;
#356 = EDGE_CURVE ( 'NONE', #35, #182, #4, .T. ) ;
#357 = DIRECTION ( 'NONE',  ( 0.0000000000000000000, 0.0000000000000000000, 1.000000000000000000 ) ) ;
#358 = LINE ( 'NONE', #351, #294 ) ;
#359 = COLOUR_RGB ( '',0.7529411764705882200, 0.7529411764705882200, 0.7529411764705882200 ) ;
#360 = FILL_AREA_STYLE_COLOUR ( '', #75 ) ;
#361 = VECTOR ( 'NONE', #266, 1000.000000000000100 ) ;
#362 = DIRECTION ( 'NONE',  ( 0.0000000000000000000, 0.0000000000000000000, 1.000000000000000000 ) ) ;
#363 = CYLINDRICAL_SURFACE ( 'NONE', #91, 6.000000000000000900 ) ;
#364 = DIRECTION ( 'NONE',  ( 0.5000000000000003300, -0.8660254037844383700, 0.0000000000000000000 ) ) ;
#365 = FILL_AREA_STYLE ('',( #211 ) ) ;
#366 = DIRECTION ( 'NONE',  ( 0.5000000000000003300, -0.8660254037844383700, 0.0000000000000000000 ) ) ;
#367 = EDGE_CURVE ( 'NONE', #82, #249, #143, .T. ) ;
#368 = CARTESIAN_POINT ( 'NONE',  ( 6.350852961085881700, 11.00000000000000400, 0.0000000000000000000 ) ) ;
#369 = FILL_AREA_STYLE_COLOUR ( '', #251 ) ;
#370 = SURFACE_STYLE_USAGE ( .BOTH. , #255 ) ;
#371 = CARTESIAN_POINT ( 'NONE',  ( 6.000000000000000900, 7.347880794884120700E-016, 0.0000000000000000000 ) ) ;
#372 = CARTESIAN_POINT ( 'NONE',  ( 6.350852961085881700, 11.00000000000000400, 0.0000000000000000000 ) ) ;
ENDSEC;
END-ISO-10303-21;
