ISO-10303-21;
HEADER;
FILE_DESCRIPTION (( 'STEP AP214' ),
    '1' );
FILE_NAME ('4din934m14e.STEP',
    '2014-08-13T08:14:39',
    ( '' ),
    ( '' ),
    'SwSTEP 2.0',
    'SolidWorks 2014',
    '' );
FILE_SCHEMA (( 'AUTOMOTIVE_DESIGN' ));
ENDSEC;

DATA;
#1 = VERTEX_POINT ( 'NONE', #327 ) ;
#2 = ORIENTED_EDGE ( 'NONE', *, *, #343, .T. ) ;
#3 = SHAPE_DEFINITION_REPRESENTATION ( #97, #54 ) ;
#4 = ORIENTED_EDGE ( 'NONE', *, *, #266, .T. ) ;
#5 = PRODUCT_DEFINITION_CONTEXT ( 'detailed design', #296, 'design' ) ;
#6 = ORIENTED_EDGE ( 'NONE', *, *, #279, .T. ) ;
#7 = VERTEX_POINT ( 'NONE', #297 ) ;
#8 = PRODUCT ( '4din934m14e', '4din934m14e', '', ( #12 ) ) ;
#9 = PRODUCT_DEFINITION_FORMATION_WITH_SPECIFIED_SOURCE ( 'ANY', '', #8, .NOT_KNOWN. ) ;
#10 = ADVANCED_FACE ( 'NONE', ( #345 ), #163, .F. ) ;
#11 = EDGE_CURVE ( 'NONE', #211, #271, #168, .T. ) ;
#12 = PRODUCT_CONTEXT ( 'NONE', #89, 'mechanical' ) ;
#13 = ORIENTED_EDGE ( 'NONE', *, *, #266, .F. ) ;
#14 = PRODUCT_DEFINITION ( 'UNKNOWN', '', #9, #5 ) ;
#15 = ORIENTED_EDGE ( 'NONE', *, *, #119, .F. ) ;
#16 = ORIENTED_EDGE ( 'NONE', *, *, #370, .T. ) ;
#17 = ORIENTED_EDGE ( 'NONE', *, *, #184, .F. ) ;
#18 = EDGE_LOOP ( 'NONE', ( #248, #2 ) ) ;
#19 = COLOUR_RGB ( '',0.7529411764705882200, 0.7529411764705882200, 0.7529411764705882200 ) ;
#20 = PRESENTATION_STYLE_ASSIGNMENT (( #212 ) ) ;
#21 = VERTEX_POINT ( 'NONE', #280 ) ;
#22 = DIRECTION ( 'NONE',  ( 1.000000000000000000, 0.0000000000000000000, 0.0000000000000000000 ) ) ;
#23 = AXIS2_PLACEMENT_3D ( 'NONE', #107, #236, #22 ) ;
#24 = ADVANCED_FACE ( 'NONE', ( #165 ), #253, .F. ) ;
#25 = SURFACE_STYLE_FILL_AREA ( #82 ) ;
#26 = VECTOR ( 'NONE', #110, 1000.000000000000100 ) ;
#27 = COLOUR_RGB ( '',0.7529411764705882200, 0.7529411764705882200, 0.7529411764705882200 ) ;
#28 = VECTOR ( 'NONE', #126, 1000.000000000000200 ) ;
#29 = ADVANCED_FACE ( 'NONE', ( #347, #158 ), #202, .T. ) ;
#30 = VECTOR ( 'NONE', #175, 1000.000000000000000 ) ;
#31 = LINE ( 'NONE', #180, #30 ) ;
#32 = ORIENTED_EDGE ( 'NONE', *, *, #220, .T. ) ;
#33 = VECTOR ( 'NONE', #177, 1000.000000000000200 ) ;
#34 = CIRCLE ( 'NONE', #64, 6.000000000000000900 ) ;
#35 = LINE ( 'NONE', #167, #26 ) ;
#36 = VECTOR ( 'NONE', #193, 1000.000000000000100 ) ;
#37 = LINE ( 'NONE', #194, #36 ) ;
#38 = LINE ( 'NONE', #152, #28 ) ;
#39 = UNCERTAINTY_MEASURE_WITH_UNIT (LENGTH_MEASURE( 1.000000000000000100E-005 ), #76, 'distance_accuracy_value', 'NONE');
#40 = ADVANCED_FACE ( 'NONE', ( #159 ), #153, .F. ) ;
#41 = SURFACE_STYLE_FILL_AREA ( #214 ) ;
#42 = VECTOR ( 'NONE', #218, 1000.000000000000100 ) ;
#43 = COLOUR_RGB ( '',0.7529411764705882200, 0.7529411764705882200, 0.7529411764705882200 ) ;
#44 = ORIENTED_EDGE ( 'NONE', *, *, #53, .F. ) ;
#45 = LINE ( 'NONE', #227, #61 ) ;
#46 = PRESENTATION_STYLE_ASSIGNMENT (( #207 ) ) ;
#47 =( GEOMETRIC_REPRESENTATION_CONTEXT ( 3 ) GLOBAL_UNCERTAINTY_ASSIGNED_CONTEXT ( ( #39 ) ) GLOBAL_UNIT_ASSIGNED_CONTEXT ( ( #76, #65, #255 ) ) REPRESENTATION_CONTEXT ( 'NONE', 'WORKASPACE' ) );
#48 = MECHANICAL_DESIGN_GEOMETRIC_PRESENTATION_REPRESENTATION (  '', ( #50 ), #47 ) ;
#49 = PRESENTATION_LAYER_ASSIGNMENT (  '', '', ( #50 ) ) ;
#50 = STYLED_ITEM ( 'NONE', ( #20 ), #54 ) ;
#51 = VECTOR ( 'NONE', #254, 1000.000000000000000 ) ;
#52 = LINE ( 'NONE', #222, #42 ) ;
#53 = EDGE_CURVE ( 'NONE', #321, #60, #160, .T. ) ;
#54 = ADVANCED_BREP_SHAPE_REPRESENTATION ( '4din934m14e', ( #316, #23 ), #56 ) ;
#55 = VECTOR ( 'NONE', #276, 1000.000000000000100 ) ;
#56 =( GEOMETRIC_REPRESENTATION_CONTEXT ( 3 ) GLOBAL_UNCERTAINTY_ASSIGNED_CONTEXT ( ( #101 ) ) GLOBAL_UNIT_ASSIGNED_CONTEXT ( ( #104, #102, #98 ) ) REPRESENTATION_CONTEXT ( 'NONE', 'WORKASPACE' ) );
#57 = EDGE_CURVE ( 'NONE', #1, #211, #162, .T. ) ;
#58 = EDGE_CURVE ( 'NONE', #123, #223, #155, .T. ) ;
#59 = EDGE_CURVE ( 'NONE', #289, #221, #156, .T. ) ;
#60 = VERTEX_POINT ( 'NONE', #365 ) ;
#61 = VECTOR ( 'NONE', #224, 1000.000000000000000 ) ;
#62 = LINE ( 'NONE', #258, #51 ) ;
#63 = AXIS2_PLACEMENT_3D ( 'NONE', #192, #187, #185 ) ;
#64 = AXIS2_PLACEMENT_3D ( 'NONE', #148, #143, #141 ) ;
#65 =( NAMED_UNIT ( * ) PLANE_ANGLE_UNIT ( ) SI_UNIT ( $, .RADIAN. ) );
#66 = LINE ( 'NONE', #268, #55 ) ;
#67 = VECTOR ( 'NONE', #278, 1000.000000000000000 ) ;
#68 = LINE ( 'NONE', #277, #69 ) ;
#69 = VECTOR ( 'NONE', #275, 1000.000000000000000 ) ;
#70 = CIRCLE ( 'NONE', #99, 6.000000000000000900 ) ;
#71 = LINE ( 'NONE', #293, #67 ) ;
#72 =( GEOMETRIC_REPRESENTATION_CONTEXT ( 3 ) GLOBAL_UNCERTAINTY_ASSIGNED_CONTEXT ( ( #195 ) ) GLOBAL_UNIT_ASSIGNED_CONTEXT ( ( #204, #198, #197 ) ) REPRESENTATION_CONTEXT ( 'NONE', 'WORKASPACE' ) );
#73 = MECHANICAL_DESIGN_GEOMETRIC_PRESENTATION_REPRESENTATION (  '', ( #87 ), #72 ) ;
#74 = ADVANCED_FACE ( 'NONE', ( #142 ), #360, .F. ) ;
#75 = PRODUCT_RELATED_PRODUCT_CATEGORY ( 'part', '', ( #8 ) ) ;
#76 =( LENGTH_UNIT ( ) NAMED_UNIT ( * ) SI_UNIT ( .MILLI., .METRE. ) );
#77 = PRESENTATION_LAYER_ASSIGNMENT (  '', '', ( #87 ) ) ;
#78 = AXIS2_PLACEMENT_3D ( 'NONE', #299, #242, #234 ) ;
#79 = CYLINDRICAL_SURFACE ( 'NONE', #109, 6.000000000000000900 ) ;
#80 = FACE_OUTER_BOUND ( 'NONE', #140, .T. ) ;
#81 = DIRECTION ( 'NONE',  ( -0.0000000000000000000, -0.0000000000000000000, -1.000000000000000000 ) ) ;
#82 = FILL_AREA_STYLE ('',( #88 ) ) ;
#83 = VECTOR ( 'NONE', #312, 1000.000000000000000 ) ;
#84 = LINE ( 'NONE', #323, #124 ) ;
#85 = CIRCLE ( 'NONE', #115, 6.000000000000000900 ) ;
#86 = VECTOR ( 'NONE', #295, 1000.000000000000000 ) ;
#87 = STYLED_ITEM ( 'NONE', ( #46 ), #316 ) ;
#88 = FILL_AREA_STYLE_COLOUR ( '', #27 ) ;
#89 = APPLICATION_CONTEXT ( 'automotive_design' ) ;
#90 = ORIENTED_EDGE ( 'NONE', *, *, #362, .F. ) ;
#91 = ORIENTED_EDGE ( 'NONE', *, *, #229, .T. ) ;
#92 = ORIENTED_EDGE ( 'NONE', *, *, #232, .F. ) ;
#93 = EDGE_LOOP ( 'NONE', ( #257, #310, #4, #6, #261, #200 ) ) ;
#94 = ORIENTED_EDGE ( 'NONE', *, *, #362, .T. ) ;
#95 = APPLICATION_PROTOCOL_DEFINITION ( 'draft international standard', 'automotive_design', 1998, #89 ) ;
#96 = ORIENTED_EDGE ( 'NONE', *, *, #139, .F. ) ;
#97 = PRODUCT_DEFINITION_SHAPE ( 'NONE', 'NONE',  #14 ) ;
#98 =( NAMED_UNIT ( * ) SI_UNIT ( $, .STERADIAN. ) SOLID_ANGLE_UNIT ( ) );
#99 = AXIS2_PLACEMENT_3D ( 'NONE', #265, #264, #262 ) ;
#100 = ORIENTED_EDGE ( 'NONE', *, *, #370, .F. ) ;
#101 = UNCERTAINTY_MEASURE_WITH_UNIT (LENGTH_MEASURE( 1.000000000000000100E-005 ), #104, 'distance_accuracy_value', 'NONE');
#102 =( NAMED_UNIT ( * ) PLANE_ANGLE_UNIT ( ) SI_UNIT ( $, .RADIAN. ) );
#103 = ADVANCED_FACE ( 'NONE', ( #136 ), #355, .F. ) ;
#104 =( LENGTH_UNIT ( ) NAMED_UNIT ( * ) SI_UNIT ( .MILLI., .METRE. ) );
#105 = AXIS2_PLACEMENT_3D ( 'NONE', #308, #306, #305 ) ;
#106 = EDGE_LOOP ( 'NONE', ( #364, #116 ) ) ;
#107 = CARTESIAN_POINT ( 'NONE',  ( 0.0000000000000000000, 0.0000000000000000000, 0.0000000000000000000 ) ) ;
#108 = ORIENTED_EDGE ( 'NONE', *, *, #349, .F. ) ;
#109 = AXIS2_PLACEMENT_3D ( 'NONE', #325, #339, #324 ) ;
#110 = DIRECTION ( 'NONE',  ( -0.5000000000000003300, -0.8660254037844384900, 0.0000000000000000000 ) ) ;
#111 = EDGE_LOOP ( 'NONE', ( #32, #91, #282, #243 ) ) ;
#112 = ORIENTED_EDGE ( 'NONE', *, *, #53, .T. ) ;
#113 = FACE_OUTER_BOUND ( 'NONE', #317, .T. ) ;
#114 = FACE_BOUND ( 'NONE', #18, .T. ) ;
#115 = AXIS2_PLACEMENT_3D ( 'NONE', #288, #287, #286 ) ;
#116 = ORIENTED_EDGE ( 'NONE', *, *, #58, .F. ) ;
#117 = EDGE_CURVE ( 'NONE', #271, #21, #147, .T. ) ;
#118 = ORIENTED_EDGE ( 'NONE', *, *, #119, .T. ) ;
#119 = EDGE_CURVE ( 'NONE', #196, #271, #131, .T. ) ;
#120 =( GEOMETRIC_REPRESENTATION_CONTEXT ( 3 ) GLOBAL_UNCERTAINTY_ASSIGNED_CONTEXT ( ( #269 ) ) GLOBAL_UNIT_ASSIGNED_CONTEXT ( ( #333, #330, #328 ) ) REPRESENTATION_CONTEXT ( 'NONE', 'WORKASPACE' ) );
#121 = MECHANICAL_DESIGN_GEOMETRIC_PRESENTATION_REPRESENTATION (  '', ( #149 ), #120 ) ;
#122 = PRESENTATION_STYLE_ASSIGNMENT (( #334 ) ) ;
#123 = VERTEX_POINT ( 'NONE', #340 ) ;
#124 = VECTOR ( 'NONE', #336, 1000.000000000000000 ) ;
#125 = COLOUR_RGB ( '',0.7529411764705882200, 0.7529411764705882200, 0.7529411764705882200 ) ;
#126 = DIRECTION ( 'NONE',  ( 0.5000000000000003300, -0.8660254037844383700, 0.0000000000000000000 ) ) ;
#127 = CARTESIAN_POINT ( 'NONE',  ( 12.70170592217177100, -1.431719560349498400E-014, 11.00000000000000000 ) ) ;
#128 = VECTOR ( 'NONE', #344, 1000.000000000000000 ) ;
#129 = FACE_OUTER_BOUND ( 'NONE', #239, .T. ) ;
#130 = CARTESIAN_POINT ( 'NONE',  ( -6.350852961085867500, -11.00000000000001600, 11.00000000000000000 ) ) ;
#131 = LINE ( 'NONE', #342, #128 ) ;
#132 = PRESENTATION_LAYER_ASSIGNMENT (  '', '', ( #149 ) ) ;
#133 = DIRECTION ( 'NONE',  ( 0.0000000000000000000, -0.0000000000000000000, -1.000000000000000000 ) ) ;
#134 = DIRECTION ( 'NONE',  ( -0.8660254037844387100, 0.4999999999999998300, 0.0000000000000000000 ) ) ;
#135 = AXIS2_PLACEMENT_3D ( 'NONE', #357, #363, #351 ) ;
#136 = FACE_OUTER_BOUND ( 'NONE', #201, .T. ) ;
#137 = ADVANCED_FACE ( 'NONE', ( #129 ), #79, .F. ) ;
#138 = ORIENTED_EDGE ( 'NONE', *, *, #302, .F. ) ;
#139 = EDGE_CURVE ( 'NONE', #337, #21, #84, .T. ) ;
#140 = EDGE_LOOP ( 'NONE', ( #298, #15, #13, #361 ) ) ;
#141 = DIRECTION ( 'NONE',  ( 1.000000000000000000, 0.0000000000000000000, 0.0000000000000000000 ) ) ;
#142 = FACE_OUTER_BOUND ( 'NONE', #219, .T. ) ;
#143 = DIRECTION ( 'NONE',  ( 0.0000000000000000000, 0.0000000000000000000, 1.000000000000000000 ) ) ;
#144 = SURFACE_STYLE_FILL_AREA ( #338 ) ;
#145 = VECTOR ( 'NONE', #81, 1000.000000000000000 ) ;
#146 = VECTOR ( 'NONE', #346, 1000.000000000000000 ) ;
#147 = LINE ( 'NONE', #356, #146 ) ;
#148 = CARTESIAN_POINT ( 'NONE',  ( 0.0000000000000000000, 0.0000000000000000000, 0.0000000000000000000 ) ) ;
#149 = STYLED_ITEM ( 'NONE', ( #122 ), #137 ) ;
#150 = CARTESIAN_POINT ( 'NONE',  ( 6.350852961085881700, 11.00000000000000400, 11.00000000000000000 ) ) ;
#151 = VECTOR ( 'NONE', #372, 1000.000000000000000 ) ;
#152 = CARTESIAN_POINT ( 'NONE',  ( -12.70170592217176300, -4.554236533233672800E-015, 0.0000000000000000000 ) ) ;
#153 = PLANE ( 'NONE',  #164 ) ;
#154 = AXIS2_PLACEMENT_3D ( 'NONE', #371, #359, #358 ) ;
#155 = CIRCLE ( 'NONE', #170, 6.000000000000000900 ) ;
#156 = LINE ( 'NONE', #369, #145 ) ;
#157 = VECTOR ( 'NONE', #272, 1000.000000000000000 ) ;
#158 = FACE_BOUND ( 'NONE', #106, .T. ) ;
#159 = FACE_OUTER_BOUND ( 'NONE', #270, .T. ) ;
#160 = LINE ( 'NONE', #130, #157 ) ;
#161 = VERTEX_POINT ( 'NONE', #315 ) ;
#162 = LINE ( 'NONE', #127, #151 ) ;
#163 = CYLINDRICAL_SURFACE ( 'NONE', #178, 6.000000000000000900 ) ;
#164 = AXIS2_PLACEMENT_3D ( 'NONE', #150, #171, #133 ) ;
#165 = FACE_OUTER_BOUND ( 'NONE', #348, .T. ) ;
#166 = VECTOR ( 'NONE', #354, 1000.000000000000000 ) ;
#167 = CARTESIAN_POINT ( 'NONE',  ( -6.350852961085871100, 11.00000000000000400, 0.0000000000000000000 ) ) ;
#168 = LINE ( 'NONE', #250, #166 ) ;
#169 = FACE_OUTER_BOUND ( 'NONE', #209, .T. ) ;
#170 = AXIS2_PLACEMENT_3D ( 'NONE', #368, #367, #366 ) ;
#171 = DIRECTION ( 'NONE',  ( 0.0000000000000000000, -1.000000000000000000, 0.0000000000000000000 ) ) ;
#172 = ORIENTED_EDGE ( 'NONE', *, *, #59, .F. ) ;
#173 = AXIS2_PLACEMENT_3D ( 'NONE', #231, #249, #181 ) ;
#174 = SURFACE_STYLE_FILL_AREA ( #331 ) ;
#175 = DIRECTION ( 'NONE',  ( 1.000000000000000000, 0.0000000000000000000, 0.0000000000000000000 ) ) ;
#176 = AXIS2_PLACEMENT_3D ( 'NONE', #226, #134, #203 ) ;
#177 = DIRECTION ( 'NONE',  ( 0.5000000000000003300, -0.8660254037844383700, 0.0000000000000000000 ) ) ;
#178 = AXIS2_PLACEMENT_3D ( 'NONE', #235, #309, #186 ) ;
#179 =( GEOMETRIC_REPRESENTATION_CONTEXT ( 3 ) GLOBAL_UNCERTAINTY_ASSIGNED_CONTEXT ( ( #322 ) ) GLOBAL_UNIT_ASSIGNED_CONTEXT ( ( #285, #281, #290 ) ) REPRESENTATION_CONTEXT ( 'NONE', 'WORKASPACE' ) );
#180 = CARTESIAN_POINT ( 'NONE',  ( -6.350852961085867500, -11.00000000000001600, 0.0000000000000000000 ) ) ;
#181 = DIRECTION ( 'NONE',  ( 1.000000000000000000, 0.0000000000000000000, -0.0000000000000000000 ) ) ;
#182 = MECHANICAL_DESIGN_GEOMETRIC_PRESENTATION_REPRESENTATION (  '', ( #199 ), #179 ) ;
#183 = PRESENTATION_LAYER_ASSIGNMENT (  '', '', ( #199 ) ) ;
#184 = EDGE_CURVE ( 'NONE', #7, #241, #188, .T. ) ;
#185 = DIRECTION ( 'NONE',  ( -0.5000000000000003300, 0.8660254037844383700, 0.0000000000000000000 ) ) ;
#186 = DIRECTION ( 'NONE',  ( -1.000000000000000000, 0.0000000000000000000, 0.0000000000000000000 ) ) ;
#187 = DIRECTION ( 'NONE',  ( 0.8660254037844384900, 0.5000000000000004400, -0.0000000000000000000 ) ) ;
#188 = LINE ( 'NONE', #320, #83 ) ;
#189 = LINE ( 'NONE', #304, #86 ) ;
#190 = PRESENTATION_STYLE_ASSIGNMENT (( #350 ) ) ;
#191 = PLANE ( 'NONE',  #63 ) ;
#192 = CARTESIAN_POINT ( 'NONE',  ( -12.70170592217176300, -4.554236533233672800E-015, 11.00000000000000000 ) ) ;
#193 = DIRECTION ( 'NONE',  ( 0.4999999999999997800, 0.8660254037844387100, 0.0000000000000000000 ) ) ;
#194 = CARTESIAN_POINT ( 'NONE',  ( 6.350852961085888800, -11.00000000000001600, 0.0000000000000000000 ) ) ;
#195 = UNCERTAINTY_MEASURE_WITH_UNIT (LENGTH_MEASURE( 1.000000000000000100E-005 ), #204, 'distance_accuracy_value', 'NONE');
#196 = VERTEX_POINT ( 'NONE', #314 ) ;
#197 =( NAMED_UNIT ( * ) SI_UNIT ( $, .STERADIAN. ) SOLID_ANGLE_UNIT ( ) );
#198 =( NAMED_UNIT ( * ) PLANE_ANGLE_UNIT ( ) SI_UNIT ( $, .RADIAN. ) );
#199 = STYLED_ITEM ( 'NONE', ( #190 ), #10 ) ;
#200 = ORIENTED_EDGE ( 'NONE', *, *, #341, .T. ) ;
#201 = EDGE_LOOP ( 'NONE', ( #16, #172, #138, #260 ) ) ;
#202 = PLANE ( 'NONE',  #173 ) ;
#203 = DIRECTION ( 'NONE',  ( -0.4999999999999998300, -0.8660254037844387100, 0.0000000000000000000 ) ) ;
#204 =( LENGTH_UNIT ( ) NAMED_UNIT ( * ) SI_UNIT ( .MILLI., .METRE. ) );
#205 = ORIENTED_EDGE ( 'NONE', *, *, #349, .T. ) ;
#206 = ADVANCED_FACE ( 'NONE', ( #80 ), #313, .F. ) ;
#207 = SURFACE_STYLE_USAGE ( .BOTH. , #208 ) ;
#208 = SURFACE_SIDE_STYLE ('',( #41 ) ) ;
#209 = EDGE_LOOP ( 'NONE', ( #94, #44, #267, #238 ) ) ;
#210 = VERTEX_POINT ( 'NONE', #307 ) ;
#211 = VERTEX_POINT ( 'NONE', #303 ) ;
#212 = SURFACE_STYLE_USAGE ( .BOTH. , #294 ) ;
#213 = ORIENTED_EDGE ( 'NONE', *, *, #184, .T. ) ;
#214 = FILL_AREA_STYLE ('',( #216 ) ) ;
#215 = EDGE_CURVE ( 'NONE', #223, #161, #189, .T. ) ;
#216 = FILL_AREA_STYLE_COLOUR ( '', #43 ) ;
#217 = CARTESIAN_POINT ( 'NONE',  ( -12.70170592217176300, -4.554236533233672800E-015, 11.00000000000000000 ) ) ;
#218 = DIRECTION ( 'NONE',  ( -0.5000000000000003300, -0.8660254037844384900, 0.0000000000000000000 ) ) ;
#219 = EDGE_LOOP ( 'NONE', ( #205, #17, #92, #112 ) ) ;
#220 = EDGE_CURVE ( 'NONE', #223, #123, #85, .T. ) ;
#221 = VERTEX_POINT ( 'NONE', #292 ) ;
#222 = CARTESIAN_POINT ( 'NONE',  ( -6.350852961085871100, 11.00000000000000400, 11.00000000000000000 ) ) ;
#223 = VERTEX_POINT ( 'NONE', #301 ) ;
#224 = DIRECTION ( 'NONE',  ( -1.000000000000000000, 0.0000000000000000000, 0.0000000000000000000 ) ) ;
#225 = ORIENTED_EDGE ( 'NONE', *, *, #326, .T. ) ;
#226 = CARTESIAN_POINT ( 'NONE',  ( 6.350852961085888800, -11.00000000000001600, 11.00000000000000000 ) ) ;
#227 = CARTESIAN_POINT ( 'NONE',  ( 6.350852961085881700, 11.00000000000000400, 11.00000000000000000 ) ) ;
#228 = CARTESIAN_POINT ( 'NONE',  ( -6.350852961085867500, -11.00000000000001600, 11.00000000000000000 ) ) ;
#229 = EDGE_CURVE ( 'NONE', #123, #210, #71, .T. ) ;
#230 = CARTESIAN_POINT ( 'NONE',  ( -6.350852961085871100, 11.00000000000000400, 11.00000000000000000 ) ) ;
#231 = CARTESIAN_POINT ( 'NONE',  ( 0.0000000000000000000, 0.0000000000000000000, 11.00000000000000000 ) ) ;
#232 = EDGE_CURVE ( 'NONE', #321, #7, #68, .T. ) ;
#233 = APPLICATION_PROTOCOL_DEFINITION ( 'draft international standard', 'automotive_design', 1998, #296 ) ;
#234 = DIRECTION ( 'NONE',  ( 1.000000000000000000, 0.0000000000000000000, -0.0000000000000000000 ) ) ;
#235 = CARTESIAN_POINT ( 'NONE',  ( 0.0000000000000000000, 0.0000000000000000000, 11.00000000000000000 ) ) ;
#236 = DIRECTION ( 'NONE',  ( 0.0000000000000000000, 0.0000000000000000000, 1.000000000000000000 ) ) ;
#237 = LINE ( 'NONE', #217, #33 ) ;
#238 = ORIENTED_EDGE ( 'NONE', *, *, #59, .T. ) ;
#239 = EDGE_LOOP ( 'NONE', ( #244, #284, #247, #311 ) ) ;
#240 = ORIENTED_EDGE ( 'NONE', *, *, #117, .F. ) ;
#241 = VERTEX_POINT ( 'NONE', #274 ) ;
#242 = DIRECTION ( 'NONE',  ( 0.0000000000000000000, 0.0000000000000000000, 1.000000000000000000 ) ) ;
#243 = ORIENTED_EDGE ( 'NONE', *, *, #215, .F. ) ;
#244 = ORIENTED_EDGE ( 'NONE', *, *, #229, .F. ) ;
#245 = EDGE_CURVE ( 'NONE', #161, #210, #70, .T. ) ;
#246 = ORIENTED_EDGE ( 'NONE', *, *, #263, .F. ) ;
#247 = ORIENTED_EDGE ( 'NONE', *, *, #215, .T. ) ;
#248 = ORIENTED_EDGE ( 'NONE', *, *, #245, .T. ) ;
#249 = DIRECTION ( 'NONE',  ( 0.0000000000000000000, 0.0000000000000000000, 1.000000000000000000 ) ) ;
#250 = CARTESIAN_POINT ( 'NONE',  ( 12.70170592217177100, -1.431719560349498400E-014, 0.0000000000000000000 ) ) ;
#251 = SURFACE_SIDE_STYLE ('',( #174 ) ) ;
#252 = PLANE ( 'NONE',  #78 ) ;
#253 = PLANE ( 'NONE',  #176 ) ;
#254 = DIRECTION ( 'NONE',  ( -0.4999999999999997200, 0.8660254037844388200, 0.0000000000000000000 ) ) ;
#255 =( NAMED_UNIT ( * ) SI_UNIT ( $, .STERADIAN. ) SOLID_ANGLE_UNIT ( ) );
#256 = CARTESIAN_POINT ( 'NONE',  ( 6.350852961085881700, 11.00000000000000400, 0.0000000000000000000 ) ) ;
#257 = ORIENTED_EDGE ( 'NONE', *, *, #232, .T. ) ;
#258 = CARTESIAN_POINT ( 'NONE',  ( 12.70170592217177100, -1.431719560349498400E-014, 11.00000000000000000 ) ) ;
#259 = ORIENTED_EDGE ( 'NONE', *, *, #117, .T. ) ;
#260 = ORIENTED_EDGE ( 'NONE', *, *, #139, .T. ) ;
#261 = ORIENTED_EDGE ( 'NONE', *, *, #302, .T. ) ;
#262 = DIRECTION ( 'NONE',  ( 1.000000000000000000, 0.0000000000000000000, 0.0000000000000000000 ) ) ;
#263 = EDGE_CURVE ( 'NONE', #7, #1, #66, .T. ) ;
#264 = DIRECTION ( 'NONE',  ( 0.0000000000000000000, 0.0000000000000000000, 1.000000000000000000 ) ) ;
#265 = CARTESIAN_POINT ( 'NONE',  ( 0.0000000000000000000, 0.0000000000000000000, 0.0000000000000000000 ) ) ;
#266 = EDGE_CURVE ( 'NONE', #1, #196, #62, .T. ) ;
#267 = ORIENTED_EDGE ( 'NONE', *, *, #341, .F. ) ;
#268 = CARTESIAN_POINT ( 'NONE',  ( 6.350852961085888800, -11.00000000000001600, 11.00000000000000000 ) ) ;
#269 = UNCERTAINTY_MEASURE_WITH_UNIT (LENGTH_MEASURE( 1.000000000000000100E-005 ), #333, 'distance_accuracy_value', 'NONE');
#270 = EDGE_LOOP ( 'NONE', ( #259, #96, #319, #118 ) ) ;
#271 = VERTEX_POINT ( 'NONE', #256 ) ;
#272 = DIRECTION ( 'NONE',  ( -0.0000000000000000000, -0.0000000000000000000, -1.000000000000000000 ) ) ;
#273 = ADVANCED_FACE ( 'NONE', ( #113, #114 ), #252, .F. ) ;
#274 = CARTESIAN_POINT ( 'NONE',  ( 6.350852961085888800, -11.00000000000001600, 0.0000000000000000000 ) ) ;
#275 = DIRECTION ( 'NONE',  ( 1.000000000000000000, 0.0000000000000000000, 0.0000000000000000000 ) ) ;
#276 = DIRECTION ( 'NONE',  ( 0.4999999999999997800, 0.8660254037844387100, 0.0000000000000000000 ) ) ;
#277 = CARTESIAN_POINT ( 'NONE',  ( -6.350852961085867500, -11.00000000000001600, 11.00000000000000000 ) ) ;
#278 = DIRECTION ( 'NONE',  ( -0.0000000000000000000, -0.0000000000000000000, -1.000000000000000000 ) ) ;
#279 = EDGE_CURVE ( 'NONE', #196, #337, #45, .T. ) ;
#280 = CARTESIAN_POINT ( 'NONE',  ( -6.350852961085871100, 11.00000000000000400, 0.0000000000000000000 ) ) ;
#281 =( NAMED_UNIT ( * ) PLANE_ANGLE_UNIT ( ) SI_UNIT ( $, .RADIAN. ) );
#282 = ORIENTED_EDGE ( 'NONE', *, *, #245, .F. ) ;
#283 = ORIENTED_EDGE ( 'NONE', *, *, #57, .F. ) ;
#284 = ORIENTED_EDGE ( 'NONE', *, *, #58, .T. ) ;
#285 =( LENGTH_UNIT ( ) NAMED_UNIT ( * ) SI_UNIT ( .MILLI., .METRE. ) );
#286 = DIRECTION ( 'NONE',  ( 1.000000000000000000, 0.0000000000000000000, 0.0000000000000000000 ) ) ;
#287 = DIRECTION ( 'NONE',  ( 0.0000000000000000000, 0.0000000000000000000, 1.000000000000000000 ) ) ;
#288 = CARTESIAN_POINT ( 'NONE',  ( 0.0000000000000000000, 0.0000000000000000000, 11.00000000000000000 ) ) ;
#289 = VERTEX_POINT ( 'NONE', #318 ) ;
#290 =( NAMED_UNIT ( * ) SI_UNIT ( $, .STERADIAN. ) SOLID_ANGLE_UNIT ( ) );
#291 = ORIENTED_EDGE ( 'NONE', *, *, #326, .F. ) ;
#292 = CARTESIAN_POINT ( 'NONE',  ( -12.70170592217176300, -4.554236533233672800E-015, 0.0000000000000000000 ) ) ;
#293 = CARTESIAN_POINT ( 'NONE',  ( 6.000000000000000900, 7.347880794884120700E-016, 11.00000000000000000 ) ) ;
#294 = SURFACE_SIDE_STYLE ('',( #25 ) ) ;
#295 = DIRECTION ( 'NONE',  ( -0.0000000000000000000, -0.0000000000000000000, -1.000000000000000000 ) ) ;
#296 = APPLICATION_CONTEXT ( 'automotive_design' ) ;
#297 = CARTESIAN_POINT ( 'NONE',  ( 6.350852961085888800, -11.00000000000001600, 11.00000000000000000 ) ) ;
#298 = ORIENTED_EDGE ( 'NONE', *, *, #11, .T. ) ;
#299 = CARTESIAN_POINT ( 'NONE',  ( 0.0000000000000000000, 0.0000000000000000000, 0.0000000000000000000 ) ) ;
#300 = CLOSED_SHELL ( 'NONE', ( #10, #29, #273, #74, #24, #206, #40, #103, #332, #137 ) ) ;
#301 = CARTESIAN_POINT ( 'NONE',  ( -6.000000000000000900, 0.0000000000000000000, 11.00000000000000000 ) ) ;
#302 = EDGE_CURVE ( 'NONE', #337, #289, #52, .T. ) ;
#303 = CARTESIAN_POINT ( 'NONE',  ( 12.70170592217177100, -1.431719560349498400E-014, 0.0000000000000000000 ) ) ;
#304 = CARTESIAN_POINT ( 'NONE',  ( -6.000000000000000900, 0.0000000000000000000, 11.00000000000000000 ) ) ;
#305 = DIRECTION ( 'NONE',  ( 0.4999999999999997200, -0.8660254037844388200, 0.0000000000000000000 ) ) ;
#306 = DIRECTION ( 'NONE',  ( -0.8660254037844388200, -0.4999999999999997200, 0.0000000000000000000 ) ) ;
#307 = CARTESIAN_POINT ( 'NONE',  ( 6.000000000000000900, 7.347880794884120700E-016, 0.0000000000000000000 ) ) ;
#308 = CARTESIAN_POINT ( 'NONE',  ( 12.70170592217177100, -1.431719560349498400E-014, 11.00000000000000000 ) ) ;
#309 = DIRECTION ( 'NONE',  ( -0.0000000000000000000, -0.0000000000000000000, -1.000000000000000000 ) ) ;
#310 = ORIENTED_EDGE ( 'NONE', *, *, #263, .T. ) ;
#311 = ORIENTED_EDGE ( 'NONE', *, *, #343, .F. ) ;
#312 = DIRECTION ( 'NONE',  ( -0.0000000000000000000, -0.0000000000000000000, -1.000000000000000000 ) ) ;
#313 = PLANE ( 'NONE',  #105 ) ;
#314 = CARTESIAN_POINT ( 'NONE',  ( 6.350852961085881700, 11.00000000000000400, 11.00000000000000000 ) ) ;
#315 = CARTESIAN_POINT ( 'NONE',  ( -6.000000000000000900, 0.0000000000000000000, 0.0000000000000000000 ) ) ;
#316 = MANIFOLD_SOLID_BREP ( 'Boss-Extrude1', #300 ) ;
#317 = EDGE_LOOP ( 'NONE', ( #108, #90, #100, #240, #329, #291 ) ) ;
#318 = CARTESIAN_POINT ( 'NONE',  ( -12.70170592217176300, -4.554236533233672800E-015, 11.00000000000000000 ) ) ;
#319 = ORIENTED_EDGE ( 'NONE', *, *, #279, .F. ) ;
#320 = CARTESIAN_POINT ( 'NONE',  ( 6.350852961085888800, -11.00000000000001600, 11.00000000000000000 ) ) ;
#321 = VERTEX_POINT ( 'NONE', #228 ) ;
#322 = UNCERTAINTY_MEASURE_WITH_UNIT (LENGTH_MEASURE( 1.000000000000000100E-005 ), #285, 'distance_accuracy_value', 'NONE');
#323 = CARTESIAN_POINT ( 'NONE',  ( -6.350852961085871100, 11.00000000000000400, 11.00000000000000000 ) ) ;
#324 = DIRECTION ( 'NONE',  ( -1.000000000000000000, 0.0000000000000000000, 0.0000000000000000000 ) ) ;
#325 = CARTESIAN_POINT ( 'NONE',  ( 0.0000000000000000000, 0.0000000000000000000, 11.00000000000000000 ) ) ;
#326 = EDGE_CURVE ( 'NONE', #241, #211, #37, .T. ) ;
#327 = CARTESIAN_POINT ( 'NONE',  ( 12.70170592217177100, -1.431719560349498400E-014, 11.00000000000000000 ) ) ;
#328 =( NAMED_UNIT ( * ) SI_UNIT ( $, .STERADIAN. ) SOLID_ANGLE_UNIT ( ) );
#329 = ORIENTED_EDGE ( 'NONE', *, *, #11, .F. ) ;
#330 =( NAMED_UNIT ( * ) PLANE_ANGLE_UNIT ( ) SI_UNIT ( $, .RADIAN. ) );
#331 = FILL_AREA_STYLE ('',( #352 ) ) ;
#332 = ADVANCED_FACE ( 'NONE', ( #169 ), #191, .F. ) ;
#333 =( LENGTH_UNIT ( ) NAMED_UNIT ( * ) SI_UNIT ( .MILLI., .METRE. ) );
#334 = SURFACE_STYLE_USAGE ( .BOTH. , #335 ) ;
#335 = SURFACE_SIDE_STYLE ('',( #144 ) ) ;
#336 = DIRECTION ( 'NONE',  ( -0.0000000000000000000, -0.0000000000000000000, -1.000000000000000000 ) ) ;
#337 = VERTEX_POINT ( 'NONE', #230 ) ;
#338 = FILL_AREA_STYLE ('',( #353 ) ) ;
#339 = DIRECTION ( 'NONE',  ( -0.0000000000000000000, -0.0000000000000000000, -1.000000000000000000 ) ) ;
#340 = CARTESIAN_POINT ( 'NONE',  ( 6.000000000000000900, 7.347880794884120700E-016, 11.00000000000000000 ) ) ;
#341 = EDGE_CURVE ( 'NONE', #289, #321, #237, .T. ) ;
#342 = CARTESIAN_POINT ( 'NONE',  ( 6.350852961085881700, 11.00000000000000400, 11.00000000000000000 ) ) ;
#343 = EDGE_CURVE ( 'NONE', #210, #161, #34, .T. ) ;
#344 = DIRECTION ( 'NONE',  ( -0.0000000000000000000, -0.0000000000000000000, -1.000000000000000000 ) ) ;
#345 = FACE_OUTER_BOUND ( 'NONE', #111, .T. ) ;
#346 = DIRECTION ( 'NONE',  ( -1.000000000000000000, 0.0000000000000000000, 0.0000000000000000000 ) ) ;
#347 = FACE_OUTER_BOUND ( 'NONE', #93, .T. ) ;
#348 = EDGE_LOOP ( 'NONE', ( #225, #283, #246, #213 ) ) ;
#349 = EDGE_CURVE ( 'NONE', #60, #241, #31, .T. ) ;
#350 = SURFACE_STYLE_USAGE ( .BOTH. , #251 ) ;
#351 = DIRECTION ( 'NONE',  ( 0.5000000000000002200, 0.8660254037844384900, 0.0000000000000000000 ) ) ;
#352 = FILL_AREA_STYLE_COLOUR ( '', #19 ) ;
#353 = FILL_AREA_STYLE_COLOUR ( '', #125 ) ;
#354 = DIRECTION ( 'NONE',  ( -0.4999999999999997200, 0.8660254037844388200, 0.0000000000000000000 ) ) ;
#355 = PLANE ( 'NONE',  #135 ) ;
#356 = CARTESIAN_POINT ( 'NONE',  ( 6.350852961085881700, 11.00000000000000400, 0.0000000000000000000 ) ) ;
#357 = CARTESIAN_POINT ( 'NONE',  ( -6.350852961085871100, 11.00000000000000400, 11.00000000000000000 ) ) ;
#358 = DIRECTION ( 'NONE',  ( 0.0000000000000000000, -0.0000000000000000000, 1.000000000000000000 ) ) ;
#359 = DIRECTION ( 'NONE',  ( 0.0000000000000000000, 1.000000000000000000, 0.0000000000000000000 ) ) ;
#360 = PLANE ( 'NONE',  #154 ) ;
#361 = ORIENTED_EDGE ( 'NONE', *, *, #57, .T. ) ;
#362 = EDGE_CURVE ( 'NONE', #221, #60, #38, .T. ) ;
#363 = DIRECTION ( 'NONE',  ( 0.8660254037844386000, -0.5000000000000003300, 0.0000000000000000000 ) ) ;
#364 = ORIENTED_EDGE ( 'NONE', *, *, #220, .F. ) ;
#365 = CARTESIAN_POINT ( 'NONE',  ( -6.350852961085867500, -11.00000000000001600, 0.0000000000000000000 ) ) ;
#366 = DIRECTION ( 'NONE',  ( 1.000000000000000000, 0.0000000000000000000, 0.0000000000000000000 ) ) ;
#367 = DIRECTION ( 'NONE',  ( 0.0000000000000000000, 0.0000000000000000000, 1.000000000000000000 ) ) ;
#368 = CARTESIAN_POINT ( 'NONE',  ( 0.0000000000000000000, 0.0000000000000000000, 11.00000000000000000 ) ) ;
#369 = CARTESIAN_POINT ( 'NONE',  ( -12.70170592217176300, -4.554236533233672800E-015, 11.00000000000000000 ) ) ;
#370 = EDGE_CURVE ( 'NONE', #21, #221, #35, .T. ) ;
#371 = CARTESIAN_POINT ( 'NONE',  ( -6.350852961085867500, -11.00000000000001600, 11.00000000000000000 ) ) ;
#372 = DIRECTION ( 'NONE',  ( -0.0000000000000000000, -0.0000000000000000000, -1.000000000000000000 ) ) ;
ENDSEC;
END-ISO-10303-21;
