ISO-10303-21;
HEADER;
FILE_DESCRIPTION (( 'STEP AP214' ),
    '1' );
FILE_NAME ('4din439bm8m.STEP',
    '2014-08-13T07:57:46',
    ( '' ),
    ( '' ),
    'SwSTEP 2.0',
    'SolidWorks 2014',
    '' );
FILE_SCHEMA (( 'AUTOMOTIVE_DESIGN' ));
ENDSEC;

DATA;
#1 = AXIS2_PLACEMENT_3D ( 'NONE', #372, #364, #348 ) ;
#2 = STYLED_ITEM ( 'NONE', ( #45 ), #301 ) ;
#3 = ADVANCED_FACE ( 'NONE', ( #125 ), #111, .F. ) ;
#4 = EDGE_CURVE ( 'NONE', #161, #145, #116, .T. ) ;
#5 = ADVANCED_FACE ( 'NONE', ( #115, #112 ), #231, .T. ) ;
#6 = PRODUCT_DEFINITION_CONTEXT ( 'detailed design', #154, 'design' ) ;
#7 = ADVANCED_FACE ( 'NONE', ( #110 ), #342, .F. ) ;
#8 = MECHANICAL_DESIGN_GEOMETRIC_PRESENTATION_REPRESENTATION (  '', ( #53 ), #121 ) ;
#9 = EDGE_CURVE ( 'NONE', #139, #138, #109, .T. ) ;
#10 = PRESENTATION_LAYER_ASSIGNMENT (  '', '', ( #41 ) ) ;
#11 = MECHANICAL_DESIGN_GEOMETRIC_PRESENTATION_REPRESENTATION (  '', ( #41 ), #337 ) ;
#12 = AXIS2_PLACEMENT_3D ( 'NONE', #308, #322, #313 ) ;
#13 = EDGE_CURVE ( 'NONE', #138, #142, #106, .T. ) ;
#14 =( GEOMETRIC_REPRESENTATION_CONTEXT ( 3 ) GLOBAL_UNCERTAINTY_ASSIGNED_CONTEXT ( ( #140 ) ) GLOBAL_UNIT_ASSIGNED_CONTEXT ( ( #222, #220, #184 ) ) REPRESENTATION_CONTEXT ( 'NONE', 'WORKASPACE' ) );
#15 = ADVANCED_FACE ( 'NONE', ( #100 ), #93, .F. ) ;
#16 = LINE ( 'NONE', #278, #61 ) ;
#17 = FACE_OUTER_BOUND ( 'NONE', #134, .T. ) ;
#18 = LINE ( 'NONE', #277, #66 ) ;
#19 = ORIENTED_EDGE ( 'NONE', *, *, #119, .F. ) ;
#20 = EDGE_LOOP ( 'NONE', ( #19, #136, #229, #191 ) ) ;
#21 = ORIENTED_EDGE ( 'NONE', *, *, #86, .T. ) ;
#22 = EDGE_CURVE ( 'NONE', #156, #157, #96, .T. ) ;
#23 = ORIENTED_EDGE ( 'NONE', *, *, #95, .F. ) ;
#24 = ORIENTED_EDGE ( 'NONE', *, *, #99, .F. ) ;
#25 = EDGE_LOOP ( 'NONE', ( #216, #183, #132, #226, #188, #158 ) ) ;
#26 = ORIENTED_EDGE ( 'NONE', *, *, #4, .T. ) ;
#27 = PRESENTATION_STYLE_ASSIGNMENT (( #174 ) ) ;
#28 = PRODUCT ( '4din439bm8m', '4din439bm8m', '', ( #159 ) ) ;
#29 = COLOUR_RGB ( '',0.6470588235294118000, 0.6196078431372549200, 0.5882352941176470800 ) ;
#30 = ADVANCED_FACE ( 'NONE', ( #92 ), #307, .F. ) ;
#31 = STYLED_ITEM ( 'NONE', ( #122 ), #3 ) ;
#32 = SHAPE_DEFINITION_REPRESENTATION ( #335, #363 ) ;
#33 = EDGE_CURVE ( 'NONE', #149, #152, #90, .T. ) ;
#34 = FACE_OUTER_BOUND ( 'NONE', #144, .T. ) ;
#35 = VECTOR ( 'NONE', #211, 1000.000000000000000 ) ;
#36 = VECTOR ( 'NONE', #217, 1000.000000000000000 ) ;
#37 = LINE ( 'NONE', #195, #35 ) ;
#38 = VECTOR ( 'NONE', #213, 1000.000000000000100 ) ;
#39 = LINE ( 'NONE', #227, #38 ) ;
#40 = EDGE_CURVE ( 'NONE', #143, #142, #94, .T. ) ;
#41 = STYLED_ITEM ( 'NONE', ( #27 ), #363 ) ;
#42 = PRODUCT_RELATED_PRODUCT_CATEGORY ( 'part', '', ( #28 ) ) ;
#43 = UNCERTAINTY_MEASURE_WITH_UNIT (LENGTH_MEASURE( 1.000000000000000100E-005 ), #302, 'distance_accuracy_value', 'NONE');
#44 = EDGE_CURVE ( 'NONE', #152, #163, #91, .T. ) ;
#45 = PRESENTATION_STYLE_ASSIGNMENT (( #221 ) ) ;
#46 = ADVANCED_FACE ( 'NONE', ( #88 ), #312, .F. ) ;
#47 = SURFACE_STYLE_FILL_AREA ( #233 ) ;
#48 = LINE ( 'NONE', #214, #36 ) ;
#49 = VECTOR ( 'NONE', #236, 1000.000000000000000 ) ;
#50 = AXIS2_PLACEMENT_3D ( 'NONE', #326, #303, #311 ) ;
#51 = LINE ( 'NONE', #251, #57 ) ;
#52 = LINE ( 'NONE', #240, #49 ) ;
#53 = STYLED_ITEM ( 'NONE', ( #104 ), #15 ) ;
#54 = FACE_OUTER_BOUND ( 'NONE', #166, .T. ) ;
#55 = FACE_OUTER_BOUND ( 'NONE', #25, .T. ) ;
#56 = FACE_BOUND ( 'NONE', #128, .T. ) ;
#57 = VECTOR ( 'NONE', #250, 1000.000000000000000 ) ;
#58 = CIRCLE ( 'NONE', #74, 3.250000000000000400 ) ;
#59 = VECTOR ( 'NONE', #275, 1000.000000000000000 ) ;
#60 = COLOUR_RGB ( '',0.6470588235294118000, 0.6196078431372549200, 0.5882352941176470800 ) ;
#61 = VECTOR ( 'NONE', #276, 1000.000000000000000 ) ;
#62 = SURFACE_STYLE_FILL_AREA ( #176 ) ;
#63 = VECTOR ( 'NONE', #287, 1000.000000000000000 ) ;
#64 = LINE ( 'NONE', #285, #63 ) ;
#65 = VECTOR ( 'NONE', #284, 1000.000000000000000 ) ;
#66 = VECTOR ( 'NONE', #281, 1000.000000000000000 ) ;
#67 = VECTOR ( 'NONE', #290, 1000.000000000000000 ) ;
#68 = AXIS2_PLACEMENT_3D ( 'NONE', #333, #300, #355 ) ;
#69 = AXIS2_PLACEMENT_3D ( 'NONE', #288, #286, #282 ) ;
#70 = LINE ( 'NONE', #279, #65 ) ;
#71 = VECTOR ( 'NONE', #298, 1000.000000000000000 ) ;
#72 = LINE ( 'NONE', #280, #67 ) ;
#73 = LINE ( 'NONE', #296, #71 ) ;
#74 = AXIS2_PLACEMENT_3D ( 'NONE', #234, #225, #224 ) ;
#75 = VECTOR ( 'NONE', #297, 1000.000000000000000 ) ;
#76 = LINE ( 'NONE', #283, #59 ) ;
#77 = VECTOR ( 'NONE', #316, 1000.000000000000000 ) ;
#78 = LINE ( 'NONE', #299, #75 ) ;
#79 = LINE ( 'NONE', #305, #87 ) ;
#80 = EDGE_CURVE ( 'NONE', #259, #164, #79, .T. ) ;
#81 = CIRCLE ( 'NONE', #358, 3.250000000000000400 ) ;
#82 = FILL_AREA_STYLE_COLOUR ( '', #325 ) ;
#83 = LINE ( 'NONE', #310, #77 ) ;
#84 = EDGE_CURVE ( 'NONE', #145, #149, #83, .T. ) ;
#85 = VECTOR ( 'NONE', #331, 1000.000000000000000 ) ;
#86 = EDGE_CURVE ( 'NONE', #156, #163, #78, .T. ) ;
#87 = VECTOR ( 'NONE', #304, 1000.000000000000000 ) ;
#88 = FACE_OUTER_BOUND ( 'NONE', #206, .T. ) ;
#89 = EDGE_CURVE ( 'NONE', #142, #143, #81, .T. ) ;
#90 = LINE ( 'NONE', #329, #98 ) ;
#91 = LINE ( 'NONE', #318, #85 ) ;
#92 = FACE_OUTER_BOUND ( 'NONE', #141, .T. ) ;
#93 = CYLINDRICAL_SURFACE ( 'NONE', #177, 3.250000000000000400 ) ;
#94 = CIRCLE ( 'NONE', #12, 3.250000000000000400 ) ;
#95 = EDGE_CURVE ( 'NONE', #146, #156, #73, .T. ) ;
#96 = LINE ( 'NONE', #323, #97 ) ;
#97 = VECTOR ( 'NONE', #317, 1000.000000000000100 ) ;
#98 = VECTOR ( 'NONE', #328, 1000.000000000000000 ) ;
#99 = EDGE_CURVE ( 'NONE', #160, #161, #72, .T. ) ;
#100 = FACE_OUTER_BOUND ( 'NONE', #172, .T. ) ;
#101 = COLOUR_RGB ( '',0.6470588235294118000, 0.6196078431372549200, 0.5882352941176470800 ) ;
#102 = VECTOR ( 'NONE', #368, 1000.000000000000000 ) ;
#103 = UNCERTAINTY_MEASURE_WITH_UNIT (LENGTH_MEASURE( 1.000000000000000100E-005 ), #201, 'distance_accuracy_value', 'NONE');
#104 = PRESENTATION_STYLE_ASSIGNMENT (( #360 ) ) ;
#105 = MECHANICAL_DESIGN_GEOMETRIC_PRESENTATION_REPRESENTATION (  '', ( #31 ), #338 ) ;
#106 = LINE ( 'NONE', #343, #102 ) ;
#107 = PRESENTATION_LAYER_ASSIGNMENT (  '', '', ( #53 ) ) ;
#108 = SURFACE_STYLE_FILL_AREA ( #366 ) ;
#109 = CIRCLE ( 'NONE', #68, 3.250000000000000400 ) ;
#110 = FACE_OUTER_BOUND ( 'NONE', #151, .T. ) ;
#111 = CYLINDRICAL_SURFACE ( 'NONE', #1, 3.250000000000000400 ) ;
#112 = FACE_BOUND ( 'NONE', #131, .T. ) ;
#113 = EDGE_CURVE ( 'NONE', #157, #160, #70, .T. ) ;
#114 = VECTOR ( 'NONE', #354, 1000.000000000000000 ) ;
#115 = FACE_OUTER_BOUND ( 'NONE', #237, .T. ) ;
#116 = LINE ( 'NONE', #209, #114 ) ;
#117 = ADVANCED_FACE ( 'NONE', ( #17 ), #289, .F. ) ;
#118 = AXIS2_PLACEMENT_3D ( 'NONE', #196, #202, #210 ) ;
#119 = EDGE_CURVE ( 'NONE', #139, #143, #18, .T. ) ;
#120 = EDGE_CURVE ( 'NONE', #157, #259, #64, .T. ) ;
#121 =( GEOMETRIC_REPRESENTATION_CONTEXT ( 3 ) GLOBAL_UNCERTAINTY_ASSIGNED_CONTEXT ( ( #192 ) ) GLOBAL_UNIT_ASSIGNED_CONTEXT ( ( #341, #351, #362 ) ) REPRESENTATION_CONTEXT ( 'NONE', 'WORKASPACE' ) );
#122 = PRESENTATION_STYLE_ASSIGNMENT (( #309 ) ) ;
#123 = SURFACE_STYLE_FILL_AREA ( #344 ) ;
#124 = EDGE_CURVE ( 'NONE', #164, #148, #16, .T. ) ;
#125 = FACE_OUTER_BOUND ( 'NONE', #20, .T. ) ;
#126 = ORIENTED_EDGE ( 'NONE', *, *, #120, .F. ) ;
#127 = EDGE_CURVE ( 'NONE', #145, #146, #76, .T. ) ;
#128 = EDGE_LOOP ( 'NONE', ( #239, #194 ) ) ;
#129 = ORIENTED_EDGE ( 'NONE', *, *, #4, .F. ) ;
#130 = ORIENTED_EDGE ( 'NONE', *, *, #119, .T. ) ;
#131 = EDGE_LOOP ( 'NONE', ( #271, #258 ) ) ;
#132 = ORIENTED_EDGE ( 'NONE', *, *, #124, .F. ) ;
#133 = ORIENTED_EDGE ( 'NONE', *, *, #80, .T. ) ;
#134 = EDGE_LOOP ( 'NONE', ( #181, #126, #218, #21 ) ) ;
#135 = CARTESIAN_POINT ( 'NONE',  ( -3.752776749732567000, -6.499999999999992000, 4.000000000000000000 ) ) ;
#136 = ORIENTED_EDGE ( 'NONE', *, *, #9, .T. ) ;
#137 = ORIENTED_EDGE ( 'NONE', *, *, #13, .F. ) ;
#138 = VERTEX_POINT ( 'NONE', #273 ) ;
#139 = VERTEX_POINT ( 'NONE', #270 ) ;
#140 = UNCERTAINTY_MEASURE_WITH_UNIT (LENGTH_MEASURE( 1.000000000000000100E-005 ), #222, 'distance_accuracy_value', 'NONE');
#141 = EDGE_LOOP ( 'NONE', ( #242, #203, #24, #255 ) ) ;
#142 = VERTEX_POINT ( 'NONE', #269 ) ;
#143 = VERTEX_POINT ( 'NONE', #268 ) ;
#144 = EDGE_LOOP ( 'NONE', ( #175, #254, #208, #180 ) ) ;
#145 = VERTEX_POINT ( 'NONE', #267 ) ;
#146 = VERTEX_POINT ( 'NONE', #274 ) ;
#147 = ADVANCED_FACE ( 'NONE', ( #54 ), #272, .F. ) ;
#148 = VERTEX_POINT ( 'NONE', #257 ) ;
#149 = VERTEX_POINT ( 'NONE', #260 ) ;
#150 = APPLICATION_PROTOCOL_DEFINITION ( 'draft international standard', 'automotive_design', 1998, #154 ) ;
#151 = EDGE_LOOP ( 'NONE', ( #133, #228, #190, #165 ) ) ;
#152 = VERTEX_POINT ( 'NONE', #252 ) ;
#153 = PRESENTATION_LAYER_ASSIGNMENT (  '', '', ( #31 ) ) ;
#154 = APPLICATION_CONTEXT ( 'automotive_design' ) ;
#155 = DIRECTION ( 'NONE',  ( 0.0000000000000000000, 0.0000000000000000000, 1.000000000000000000 ) ) ;
#156 = VERTEX_POINT ( 'NONE', #261 ) ;
#157 = VERTEX_POINT ( 'NONE', #253 ) ;
#158 = ORIENTED_EDGE ( 'NONE', *, *, #44, .F. ) ;
#159 = PRODUCT_CONTEXT ( 'NONE', #187, 'mechanical' ) ;
#160 = VERTEX_POINT ( 'NONE', #263 ) ;
#161 = VERTEX_POINT ( 'NONE', #266 ) ;
#162 = DIRECTION ( 'NONE',  ( 1.000000000000000000, 0.0000000000000000000, 0.0000000000000000000 ) ) ;
#163 = VERTEX_POINT ( 'NONE', #256 ) ;
#164 = VERTEX_POINT ( 'NONE', #248 ) ;
#165 = ORIENTED_EDGE ( 'NONE', *, *, #120, .T. ) ;
#166 = EDGE_LOOP ( 'NONE', ( #200, #179, #23, #212 ) ) ;
#167 =( NAMED_UNIT ( * ) SI_UNIT ( $, .STERADIAN. ) SOLID_ANGLE_UNIT ( ) );
#168 =( NAMED_UNIT ( * ) PLANE_ANGLE_UNIT ( ) SI_UNIT ( $, .RADIAN. ) );
#169 = EDGE_CURVE ( 'NONE', #146, #152, #51, .T. ) ;
#170 = CLOSED_SHELL ( 'NONE', ( #15, #5, #204, #356, #147, #117, #7, #30, #46, #3 ) ) ;
#171 = ORIENTED_EDGE ( 'NONE', *, *, #22, .T. ) ;
#172 = EDGE_LOOP ( 'NONE', ( #223, #130, #249, #137 ) ) ;
#173 =( LENGTH_UNIT ( ) NAMED_UNIT ( * ) SI_UNIT ( .MILLI., .METRE. ) );
#174 = SURFACE_STYLE_USAGE ( .BOTH. , #178 ) ;
#175 = ORIENTED_EDGE ( 'NONE', *, *, #33, .T. ) ;
#176 = FILL_AREA_STYLE ('',( #185 ) ) ;
#177 = AXIS2_PLACEMENT_3D ( 'NONE', #367, #371, #350 ) ;
#178 = SURFACE_SIDE_STYLE ('',( #62 ) ) ;
#179 = ORIENTED_EDGE ( 'NONE', *, *, #86, .F. ) ;
#180 = ORIENTED_EDGE ( 'NONE', *, *, #84, .T. ) ;
#181 = ORIENTED_EDGE ( 'NONE', *, *, #314, .T. ) ;
#182 = ORIENTED_EDGE ( 'NONE', *, *, #84, .F. ) ;
#183 = ORIENTED_EDGE ( 'NONE', *, *, #293, .F. ) ;
#184 =( NAMED_UNIT ( * ) SI_UNIT ( $, .STERADIAN. ) SOLID_ANGLE_UNIT ( ) );
#185 = FILL_AREA_STYLE_COLOUR ( '', #29 ) ;
#186 = AXIS2_PLACEMENT_3D ( 'NONE', #334, #330, #332 ) ;
#187 = APPLICATION_CONTEXT ( 'automotive_design' ) ;
#188 = ORIENTED_EDGE ( 'NONE', *, *, #314, .F. ) ;
#189 = APPLICATION_PROTOCOL_DEFINITION ( 'draft international standard', 'automotive_design', 1998, #187 ) ;
#190 = ORIENTED_EDGE ( 'NONE', *, *, #113, .F. ) ;
#191 = ORIENTED_EDGE ( 'NONE', *, *, #40, .F. ) ;
#192 = UNCERTAINTY_MEASURE_WITH_UNIT (LENGTH_MEASURE( 1.000000000000000100E-005 ), #341, 'distance_accuracy_value', 'NONE');
#193 = ORIENTED_EDGE ( 'NONE', *, *, #95, .T. ) ;
#194 = ORIENTED_EDGE ( 'NONE', *, *, #40, .T. ) ;
#195 = CARTESIAN_POINT ( 'NONE',  ( 7.505553499465134100, 1.992966636797673100E-015, 4.000000000000000000 ) ) ;
#196 = CARTESIAN_POINT ( 'NONE',  ( 3.752776749732563500, 6.499999999999999100, 4.000000000000000000 ) ) ;
#197 = PLANE ( 'NONE',  #118 ) ;
#198 =( NAMED_UNIT ( * ) SI_UNIT ( $, .STERADIAN. ) SOLID_ANGLE_UNIT ( ) );
#199 =( NAMED_UNIT ( * ) PLANE_ANGLE_UNIT ( ) SI_UNIT ( $, .RADIAN. ) );
#200 = ORIENTED_EDGE ( 'NONE', *, *, #44, .T. ) ;
#201 =( LENGTH_UNIT ( ) NAMED_UNIT ( * ) SI_UNIT ( .MILLI., .METRE. ) );
#202 = DIRECTION ( 'NONE',  ( 0.0000000000000000000, -1.000000000000000000, 0.0000000000000000000 ) ) ;
#203 = ORIENTED_EDGE ( 'NONE', *, *, #353, .F. ) ;
#204 = ADVANCED_FACE ( 'NONE', ( #55, #56 ), #235, .F. ) ;
#205 = ORIENTED_EDGE ( 'NONE', *, *, #99, .T. ) ;
#206 = EDGE_LOOP ( 'NONE', ( #215, #182, #129, #219 ) ) ;
#207 = CARTESIAN_POINT ( 'NONE',  ( 0.0000000000000000000, 0.0000000000000000000, 0.0000000000000000000 ) ) ;
#208 = ORIENTED_EDGE ( 'NONE', *, *, #127, .F. ) ;
#209 = CARTESIAN_POINT ( 'NONE',  ( 7.505553499465134100, 1.992966636797673100E-015, 4.000000000000000000 ) ) ;
#210 = DIRECTION ( 'NONE',  ( 0.0000000000000000000, -0.0000000000000000000, -1.000000000000000000 ) ) ;
#211 = DIRECTION ( 'NONE',  ( -0.0000000000000000000, -0.0000000000000000000, -1.000000000000000000 ) ) ;
#212 = ORIENTED_EDGE ( 'NONE', *, *, #169, .T. ) ;
#213 = DIRECTION ( 'NONE',  ( 0.4999999999999999400, -0.8660254037844386000, 0.0000000000000000000 ) ) ;
#214 = CARTESIAN_POINT ( 'NONE',  ( 3.752776749732559900, -6.499999999999992000, 4.000000000000000000 ) ) ;
#215 = ORIENTED_EDGE ( 'NONE', *, *, #293, .T. ) ;
#216 = ORIENTED_EDGE ( 'NONE', *, *, #33, .F. ) ;
#217 = DIRECTION ( 'NONE',  ( -0.0000000000000000000, -0.0000000000000000000, -1.000000000000000000 ) ) ;
#218 = ORIENTED_EDGE ( 'NONE', *, *, #22, .F. ) ;
#219 = ORIENTED_EDGE ( 'NONE', *, *, #353, .T. ) ;
#220 =( NAMED_UNIT ( * ) PLANE_ANGLE_UNIT ( ) SI_UNIT ( $, .RADIAN. ) );
#221 = SURFACE_STYLE_USAGE ( .BOTH. , #230 ) ;
#222 =( LENGTH_UNIT ( ) NAMED_UNIT ( * ) SI_UNIT ( .MILLI., .METRE. ) );
#223 = ORIENTED_EDGE ( 'NONE', *, *, #295, .T. ) ;
#224 = DIRECTION ( 'NONE',  ( 1.000000000000000000, 0.0000000000000000000, 0.0000000000000000000 ) ) ;
#225 = DIRECTION ( 'NONE',  ( 0.0000000000000000000, 0.0000000000000000000, 1.000000000000000000 ) ) ;
#226 = ORIENTED_EDGE ( 'NONE', *, *, #80, .F. ) ;
#227 = CARTESIAN_POINT ( 'NONE',  ( -7.505553499465134100, 7.530149464852190700E-015, 0.0000000000000000000 ) ) ;
#228 = ORIENTED_EDGE ( 'NONE', *, *, #345, .F. ) ;
#229 = ORIENTED_EDGE ( 'NONE', *, *, #13, .T. ) ;
#230 = SURFACE_SIDE_STYLE ('',( #47 ) ) ;
#231 = PLANE ( 'NONE',  #186 ) ;
#232 = ORIENTED_EDGE ( 'NONE', *, *, #127, .T. ) ;
#233 = FILL_AREA_STYLE ('',( #238 ) ) ;
#234 = CARTESIAN_POINT ( 'NONE',  ( 0.0000000000000000000, 0.0000000000000000000, 4.000000000000000000 ) ) ;
#235 = PLANE ( 'NONE',  #336 ) ;
#236 = DIRECTION ( 'NONE',  ( -0.5000000000000004400, 0.8660254037844383700, 0.0000000000000000000 ) ) ;
#237 = EDGE_LOOP ( 'NONE', ( #232, #193, #171, #243, #205, #26 ) ) ;
#238 = FILL_AREA_STYLE_COLOUR ( '', #60 ) ;
#239 = ORIENTED_EDGE ( 'NONE', *, *, #89, .T. ) ;
#240 = CARTESIAN_POINT ( 'NONE',  ( 7.505553499465134100, 1.992966636797673100E-015, 0.0000000000000000000 ) ) ;
#241 = AXIS2_PLACEMENT_3D ( 'NONE', #207, #155, #162 ) ;
#242 = ORIENTED_EDGE ( 'NONE', *, *, #124, .T. ) ;
#243 = ORIENTED_EDGE ( 'NONE', *, *, #113, .T. ) ;
#244 = CARTESIAN_POINT ( 'NONE',  ( -3.752776749732567000, -6.499999999999992000, 0.0000000000000000000 ) ) ;
#245 = DIRECTION ( 'NONE',  ( 0.0000000000000000000, 0.0000000000000000000, 1.000000000000000000 ) ) ;
#246 = DIRECTION ( 'NONE',  ( 1.000000000000000000, 0.0000000000000000000, -0.0000000000000000000 ) ) ;
#247 = CARTESIAN_POINT ( 'NONE',  ( -3.752776749732570600, 6.499999999999999100, 0.0000000000000000000 ) ) ;
#248 = CARTESIAN_POINT ( 'NONE',  ( 3.752776749732559900, -6.499999999999992000, 0.0000000000000000000 ) ) ;
#249 = ORIENTED_EDGE ( 'NONE', *, *, #89, .F. ) ;
#250 = DIRECTION ( 'NONE',  ( -0.0000000000000000000, -0.0000000000000000000, -1.000000000000000000 ) ) ;
#251 = CARTESIAN_POINT ( 'NONE',  ( -3.752776749732570600, 6.499999999999999100, 4.000000000000000000 ) ) ;
#252 = CARTESIAN_POINT ( 'NONE',  ( -3.752776749732570600, 6.499999999999999100, 0.0000000000000000000 ) ) ;
#253 = CARTESIAN_POINT ( 'NONE',  ( -3.752776749732567000, -6.499999999999992000, 4.000000000000000000 ) ) ;
#254 = ORIENTED_EDGE ( 'NONE', *, *, #169, .F. ) ;
#255 = ORIENTED_EDGE ( 'NONE', *, *, #345, .T. ) ;
#256 = CARTESIAN_POINT ( 'NONE',  ( -7.505553499465134100, 7.530149464852190700E-015, 0.0000000000000000000 ) ) ;
#257 = CARTESIAN_POINT ( 'NONE',  ( 7.505553499465134100, 1.992966636797673100E-015, 0.0000000000000000000 ) ) ;
#258 = ORIENTED_EDGE ( 'NONE', *, *, #9, .F. ) ;
#259 = VERTEX_POINT ( 'NONE', #244 ) ;
#260 = CARTESIAN_POINT ( 'NONE',  ( 3.752776749732563500, 6.499999999999999100, 0.0000000000000000000 ) ) ;
#261 = CARTESIAN_POINT ( 'NONE',  ( -7.505553499465134100, 7.530149464852190700E-015, 4.000000000000000000 ) ) ;
#262 = CARTESIAN_POINT ( 'NONE',  ( -3.752776749732570600, 6.499999999999999100, 4.000000000000000000 ) ) ;
#263 = CARTESIAN_POINT ( 'NONE',  ( 3.752776749732559900, -6.499999999999992000, 4.000000000000000000 ) ) ;
#264 = DIRECTION ( 'NONE',  ( 0.5000000000000001100, 0.8660254037844386000, 0.0000000000000000000 ) ) ;
#265 = DIRECTION ( 'NONE',  ( 0.8660254037844386000, -0.5000000000000001100, 0.0000000000000000000 ) ) ;
#266 = CARTESIAN_POINT ( 'NONE',  ( 7.505553499465134100, 1.992966636797673100E-015, 4.000000000000000000 ) ) ;
#267 = CARTESIAN_POINT ( 'NONE',  ( 3.752776749732563500, 6.499999999999999100, 4.000000000000000000 ) ) ;
#268 = CARTESIAN_POINT ( 'NONE',  ( 3.250000000000000400, 3.980102097228898200E-016, 0.0000000000000000000 ) ) ;
#269 = CARTESIAN_POINT ( 'NONE',  ( -3.250000000000000400, 0.0000000000000000000, 0.0000000000000000000 ) ) ;
#270 = CARTESIAN_POINT ( 'NONE',  ( 3.250000000000000400, 3.980102097228898200E-016, 4.000000000000000000 ) ) ;
#271 = ORIENTED_EDGE ( 'NONE', *, *, #295, .F. ) ;
#272 = PLANE ( 'NONE',  #315 ) ;
#273 = CARTESIAN_POINT ( 'NONE',  ( -3.250000000000000400, 0.0000000000000000000, 4.000000000000000000 ) ) ;
#274 = CARTESIAN_POINT ( 'NONE',  ( -3.752776749732570600, 6.499999999999999100, 4.000000000000000000 ) ) ;
#275 = DIRECTION ( 'NONE',  ( -1.000000000000000000, 0.0000000000000000000, 0.0000000000000000000 ) ) ;
#276 = DIRECTION ( 'NONE',  ( 0.5000000000000010000, 0.8660254037844380400, 0.0000000000000000000 ) ) ;
#277 = CARTESIAN_POINT ( 'NONE',  ( 3.250000000000000400, 3.980102097228898200E-016, 4.000000000000000000 ) ) ;
#278 = CARTESIAN_POINT ( 'NONE',  ( 3.752776749732559900, -6.499999999999992000, 0.0000000000000000000 ) ) ;
#279 = CARTESIAN_POINT ( 'NONE',  ( -3.752776749732567000, -6.499999999999992000, 4.000000000000000000 ) ) ;
#280 = CARTESIAN_POINT ( 'NONE',  ( 3.752776749732559900, -6.499999999999992000, 4.000000000000000000 ) ) ;
#281 = DIRECTION ( 'NONE',  ( -0.0000000000000000000, -0.0000000000000000000, -1.000000000000000000 ) ) ;
#282 = DIRECTION ( 'NONE',  ( -0.4999999999999999400, 0.8660254037844386000, 0.0000000000000000000 ) ) ;
#283 = CARTESIAN_POINT ( 'NONE',  ( 3.752776749732563500, 6.499999999999999100, 4.000000000000000000 ) ) ;
#284 = DIRECTION ( 'NONE',  ( 1.000000000000000000, 0.0000000000000000000, 0.0000000000000000000 ) ) ;
#285 = CARTESIAN_POINT ( 'NONE',  ( -3.752776749732567000, -6.499999999999992000, 4.000000000000000000 ) ) ;
#286 = DIRECTION ( 'NONE',  ( 0.8660254037844387100, 0.5000000000000000000, -0.0000000000000000000 ) ) ;
#287 = DIRECTION ( 'NONE',  ( -0.0000000000000000000, -0.0000000000000000000, -1.000000000000000000 ) ) ;
#288 = CARTESIAN_POINT ( 'NONE',  ( -7.505553499465134100, 7.530149464852190700E-015, 4.000000000000000000 ) ) ;
#289 = PLANE ( 'NONE',  #69 ) ;
#290 = DIRECTION ( 'NONE',  ( 0.5000000000000010000, 0.8660254037844380400, 0.0000000000000000000 ) ) ;
#291 = DIRECTION ( 'NONE',  ( 1.000000000000000000, 0.0000000000000000000, 0.0000000000000000000 ) ) ;
#292 = CARTESIAN_POINT ( 'NONE',  ( 0.0000000000000000000, 0.0000000000000000000, 0.0000000000000000000 ) ) ;
#293 = EDGE_CURVE ( 'NONE', #148, #149, #52, .T. ) ;
#294 = DIRECTION ( 'NONE',  ( 0.0000000000000000000, 0.0000000000000000000, 1.000000000000000000 ) ) ;
#295 = EDGE_CURVE ( 'NONE', #138, #139, #58, .T. ) ;
#296 = CARTESIAN_POINT ( 'NONE',  ( -3.752776749732570600, 6.499999999999999100, 4.000000000000000000 ) ) ;
#297 = DIRECTION ( 'NONE',  ( -0.0000000000000000000, -0.0000000000000000000, -1.000000000000000000 ) ) ;
#298 = DIRECTION ( 'NONE',  ( -0.5000000000000001100, -0.8660254037844386000, 0.0000000000000000000 ) ) ;
#299 = CARTESIAN_POINT ( 'NONE',  ( -7.505553499465134100, 7.530149464852190700E-015, 4.000000000000000000 ) ) ;
#300 = DIRECTION ( 'NONE',  ( 0.0000000000000000000, 0.0000000000000000000, 1.000000000000000000 ) ) ;
#301 = MANIFOLD_SOLID_BREP ( 'Aufsatz-Linear austragen1', #170 ) ;
#302 =( LENGTH_UNIT ( ) NAMED_UNIT ( * ) SI_UNIT ( .MILLI., .METRE. ) );
#303 = DIRECTION ( 'NONE',  ( -0.8660254037844383700, -0.5000000000000004400, 0.0000000000000000000 ) ) ;
#304 = DIRECTION ( 'NONE',  ( 1.000000000000000000, 0.0000000000000000000, 0.0000000000000000000 ) ) ;
#305 = CARTESIAN_POINT ( 'NONE',  ( -3.752776749732567000, -6.499999999999992000, 0.0000000000000000000 ) ) ;
#306 = UNCERTAINTY_MEASURE_WITH_UNIT (LENGTH_MEASURE( 1.000000000000000100E-005 ), #173, 'distance_accuracy_value', 'NONE');
#307 = PLANE ( 'NONE',  #349 ) ;
#308 = CARTESIAN_POINT ( 'NONE',  ( 0.0000000000000000000, 0.0000000000000000000, 0.0000000000000000000 ) ) ;
#309 = SURFACE_STYLE_USAGE ( .BOTH. , #321 ) ;
#310 = CARTESIAN_POINT ( 'NONE',  ( 3.752776749732563500, 6.499999999999999100, 4.000000000000000000 ) ) ;
#311 = DIRECTION ( 'NONE',  ( 0.5000000000000004400, -0.8660254037844383700, 0.0000000000000000000 ) ) ;
#312 = PLANE ( 'NONE',  #50 ) ;
#313 = DIRECTION ( 'NONE',  ( 1.000000000000000000, 0.0000000000000000000, 0.0000000000000000000 ) ) ;
#314 = EDGE_CURVE ( 'NONE', #163, #259, #39, .T. ) ;
#315 = AXIS2_PLACEMENT_3D ( 'NONE', #262, #265, #264 ) ;
#316 = DIRECTION ( 'NONE',  ( -0.0000000000000000000, -0.0000000000000000000, -1.000000000000000000 ) ) ;
#317 = DIRECTION ( 'NONE',  ( 0.4999999999999999400, -0.8660254037844386000, 0.0000000000000000000 ) ) ;
#318 = CARTESIAN_POINT ( 'NONE',  ( -3.752776749732570600, 6.499999999999999100, 0.0000000000000000000 ) ) ;
#319 =( NAMED_UNIT ( * ) PLANE_ANGLE_UNIT ( ) SI_UNIT ( $, .RADIAN. ) );
#320 =( GEOMETRIC_REPRESENTATION_CONTEXT ( 3 ) GLOBAL_UNCERTAINTY_ASSIGNED_CONTEXT ( ( #103 ) ) GLOBAL_UNIT_ASSIGNED_CONTEXT ( ( #201, #199, #198 ) ) REPRESENTATION_CONTEXT ( 'NONE', 'WORKASPACE' ) );
#321 = SURFACE_SIDE_STYLE ('',( #123 ) ) ;
#322 = DIRECTION ( 'NONE',  ( 0.0000000000000000000, 0.0000000000000000000, 1.000000000000000000 ) ) ;
#323 = CARTESIAN_POINT ( 'NONE',  ( -7.505553499465134100, 7.530149464852190700E-015, 4.000000000000000000 ) ) ;
#324 = PRESENTATION_LAYER_ASSIGNMENT (  '', '', ( #2 ) ) ;
#325 = COLOUR_RGB ( '',0.6470588235294118000, 0.6196078431372549200, 0.5882352941176470800 ) ;
#326 = CARTESIAN_POINT ( 'NONE',  ( 7.505553499465134100, 1.992966636797673100E-015, 4.000000000000000000 ) ) ;
#327 = DIRECTION ( 'NONE',  ( -0.8660254037844380400, 0.5000000000000010000, 0.0000000000000000000 ) ) ;
#328 = DIRECTION ( 'NONE',  ( -1.000000000000000000, 0.0000000000000000000, 0.0000000000000000000 ) ) ;
#329 = CARTESIAN_POINT ( 'NONE',  ( 3.752776749732563500, 6.499999999999999100, 0.0000000000000000000 ) ) ;
#330 = DIRECTION ( 'NONE',  ( 0.0000000000000000000, 0.0000000000000000000, 1.000000000000000000 ) ) ;
#331 = DIRECTION ( 'NONE',  ( -0.5000000000000001100, -0.8660254037844386000, 0.0000000000000000000 ) ) ;
#332 = DIRECTION ( 'NONE',  ( 1.000000000000000000, 0.0000000000000000000, -0.0000000000000000000 ) ) ;
#333 = CARTESIAN_POINT ( 'NONE',  ( 0.0000000000000000000, 0.0000000000000000000, 4.000000000000000000 ) ) ;
#334 = CARTESIAN_POINT ( 'NONE',  ( -3.752776749732570600, 6.499999999999999100, 4.000000000000000000 ) ) ;
#335 = PRODUCT_DEFINITION_SHAPE ( 'NONE', 'NONE',  #357 ) ;
#336 = AXIS2_PLACEMENT_3D ( 'NONE', #247, #245, #246 ) ;
#337 =( GEOMETRIC_REPRESENTATION_CONTEXT ( 3 ) GLOBAL_UNCERTAINTY_ASSIGNED_CONTEXT ( ( #306 ) ) GLOBAL_UNIT_ASSIGNED_CONTEXT ( ( #173, #168, #167 ) ) REPRESENTATION_CONTEXT ( 'NONE', 'WORKASPACE' ) );
#338 =( GEOMETRIC_REPRESENTATION_CONTEXT ( 3 ) GLOBAL_UNCERTAINTY_ASSIGNED_CONTEXT ( ( #43 ) ) GLOBAL_UNIT_ASSIGNED_CONTEXT ( ( #302, #319, #352 ) ) REPRESENTATION_CONTEXT ( 'NONE', 'WORKASPACE' ) );
#339 = DIRECTION ( 'NONE',  ( -0.5000000000000010000, -0.8660254037844380400, 0.0000000000000000000 ) ) ;
#340 = CARTESIAN_POINT ( 'NONE',  ( 3.752776749732559900, -6.499999999999992000, 4.000000000000000000 ) ) ;
#341 =( LENGTH_UNIT ( ) NAMED_UNIT ( * ) SI_UNIT ( .MILLI., .METRE. ) );
#342 = PLANE ( 'NONE',  #346 ) ;
#343 = CARTESIAN_POINT ( 'NONE',  ( -3.250000000000000400, 0.0000000000000000000, 4.000000000000000000 ) ) ;
#344 = FILL_AREA_STYLE ('',( #82 ) ) ;
#345 = EDGE_CURVE ( 'NONE', #160, #164, #48, .T. ) ;
#346 = AXIS2_PLACEMENT_3D ( 'NONE', #135, #365, #347 ) ;
#347 = DIRECTION ( 'NONE',  ( 0.0000000000000000000, -0.0000000000000000000, 1.000000000000000000 ) ) ;
#348 = DIRECTION ( 'NONE',  ( -1.000000000000000000, 0.0000000000000000000, 0.0000000000000000000 ) ) ;
#349 = AXIS2_PLACEMENT_3D ( 'NONE', #340, #327, #339 ) ;
#350 = DIRECTION ( 'NONE',  ( -1.000000000000000000, 0.0000000000000000000, 0.0000000000000000000 ) ) ;
#351 =( NAMED_UNIT ( * ) PLANE_ANGLE_UNIT ( ) SI_UNIT ( $, .RADIAN. ) );
#352 =( NAMED_UNIT ( * ) SI_UNIT ( $, .STERADIAN. ) SOLID_ANGLE_UNIT ( ) );
#353 = EDGE_CURVE ( 'NONE', #161, #148, #37, .T. ) ;
#354 = DIRECTION ( 'NONE',  ( -0.5000000000000004400, 0.8660254037844383700, 0.0000000000000000000 ) ) ;
#355 = DIRECTION ( 'NONE',  ( 1.000000000000000000, 0.0000000000000000000, 0.0000000000000000000 ) ) ;
#356 = ADVANCED_FACE ( 'NONE', ( #34 ), #197, .F. ) ;
#357 = PRODUCT_DEFINITION ( 'UNKNOWN', '', #361, #6 ) ;
#358 = AXIS2_PLACEMENT_3D ( 'NONE', #292, #294, #291 ) ;
#359 = MECHANICAL_DESIGN_GEOMETRIC_PRESENTATION_REPRESENTATION (  '', ( #2 ), #14 ) ;
#360 = SURFACE_STYLE_USAGE ( .BOTH. , #369 ) ;
#361 = PRODUCT_DEFINITION_FORMATION_WITH_SPECIFIED_SOURCE ( 'ANY', '', #28, .NOT_KNOWN. ) ;
#362 =( NAMED_UNIT ( * ) SI_UNIT ( $, .STERADIAN. ) SOLID_ANGLE_UNIT ( ) );
#363 = ADVANCED_BREP_SHAPE_REPRESENTATION ( '4din439bm8m', ( #301, #241 ), #320 ) ;
#364 = DIRECTION ( 'NONE',  ( -0.0000000000000000000, -0.0000000000000000000, -1.000000000000000000 ) ) ;
#365 = DIRECTION ( 'NONE',  ( 0.0000000000000000000, 1.000000000000000000, 0.0000000000000000000 ) ) ;
#366 = FILL_AREA_STYLE ('',( #370 ) ) ;
#367 = CARTESIAN_POINT ( 'NONE',  ( 0.0000000000000000000, 0.0000000000000000000, 4.000000000000000000 ) ) ;
#368 = DIRECTION ( 'NONE',  ( -0.0000000000000000000, -0.0000000000000000000, -1.000000000000000000 ) ) ;
#369 = SURFACE_SIDE_STYLE ('',( #108 ) ) ;
#370 = FILL_AREA_STYLE_COLOUR ( '', #101 ) ;
#371 = DIRECTION ( 'NONE',  ( -0.0000000000000000000, -0.0000000000000000000, -1.000000000000000000 ) ) ;
#372 = CARTESIAN_POINT ( 'NONE',  ( 0.0000000000000000000, 0.0000000000000000000, 4.000000000000000000 ) ) ;
ENDSEC;
END-ISO-10303-21;
