ISO-10303-21;
HEADER;
FILE_DESCRIPTION (( 'STEP AP214' ),
    '1' );
FILE_NAME ('096pr0231506m8.STEP',
    '2014-08-18T13:06:11',
    ( '' ),
    ( '' ),
    'SwSTEP 2.0',
    'SolidWorks 2014',
    '' );
FILE_SCHEMA (( 'AUTOMOTIVE_DESIGN' ));
ENDSEC;

DATA;
#1 = DIRECTION ( 'NONE',  ( 0.0000000000000000000, 0.0000000000000000000, 1.000000000000000000 ) ) ;
#2 = EDGE_CURVE ( 'NONE', #88, #83, #112, .T. ) ;
#3 = DIRECTION ( 'NONE',  ( -1.000000000000000000, 0.0000000000000000000, 0.0000000000000000000 ) ) ;
#4 = PRESENTATION_STYLE_ASSIGNMENT (( #65 ) ) ;
#5 = EDGE_LOOP ( 'NONE', ( #93, #181, #14, #213 ) ) ;
#6 = PRODUCT_CONTEXT ( 'NONE', #72, 'mechanical' ) ;
#7 = ORIENTED_EDGE ( 'NONE', *, *, #248, .F. ) ;
#8 = SURFACE_STYLE_FILL_AREA ( #69 ) ;
#9 = VERTEX_POINT ( 'NONE', #273 ) ;
#10 = DIRECTION ( 'NONE',  ( 1.000000000000000000, 0.0000000000000000000, 0.0000000000000000000 ) ) ;
#11 = EDGE_CURVE ( 'NONE', #173, #117, #258, .T. ) ;
#12 =( GEOMETRIC_REPRESENTATION_CONTEXT ( 3 ) GLOBAL_UNCERTAINTY_ASSIGNED_CONTEXT ( ( #214 ) ) GLOBAL_UNIT_ASSIGNED_CONTEXT ( ( #70, #56, #28 ) ) REPRESENTATION_CONTEXT ( 'NONE', 'WORKASPACE' ) );
#13 = ORIENTED_EDGE ( 'NONE', *, *, #268, .F. ) ;
#14 = ORIENTED_EDGE ( 'NONE', *, *, #146, .F. ) ;
#15 = ADVANCED_FACE ( 'NONE', ( #208, #193 ), #91, .T. ) ;
#16 = CARTESIAN_POINT ( 'NONE',  ( -7.500000000000000000, 17.60918321028354000, 0.0000000000000000000 ) ) ;
#17 = LINE ( 'NONE', #236, #68 ) ;
#18 = PLANE ( 'NONE',  #82 ) ;
#19 = FACE_OUTER_BOUND ( 'NONE', #149, .T. ) ;
#20 = EDGE_CURVE ( 'NONE', #9, #59, #95, .T. ) ;
#21 = VECTOR ( 'NONE', #187, 1000.000000000000000 ) ;
#22 =( GEOMETRIC_REPRESENTATION_CONTEXT ( 3 ) GLOBAL_UNCERTAINTY_ASSIGNED_CONTEXT ( ( #135 ) ) GLOBAL_UNIT_ASSIGNED_CONTEXT ( ( #79, #76, #75 ) ) REPRESENTATION_CONTEXT ( 'NONE', 'WORKASPACE' ) );
#23 = CARTESIAN_POINT ( 'NONE',  ( -3.300000000000000300, 0.0000000000000000000, 0.0000000000000000000 ) ) ;
#24 = ORIENTED_EDGE ( 'NONE', *, *, #81, .T. ) ;
#25 = CYLINDRICAL_SURFACE ( 'NONE', #253, 3.300000000000000300 ) ;
#26 = DIRECTION ( 'NONE',  ( 0.0000000000000000000, 0.0000000000000000000, 1.000000000000000000 ) ) ;
#27 = FACE_OUTER_BOUND ( 'NONE', #249, .T. ) ;
#28 =( NAMED_UNIT ( * ) SI_UNIT ( $, .STERADIAN. ) SOLID_ANGLE_UNIT ( ) );
#29 = EDGE_CURVE ( 'NONE', #73, #50, #159, .T. ) ;
#30 = LINE ( 'NONE', #36, #141 ) ;
#31 = CARTESIAN_POINT ( 'NONE',  ( 7.500000000000000000, -17.60918321028353600, 6.000000000000000000 ) ) ;
#32 = PRESENTATION_STYLE_ASSIGNMENT (( #147 ) ) ;
#33 = CARTESIAN_POINT ( 'NONE',  ( 7.500000000000000000, 8.948929172439203900, 0.0000000000000000000 ) ) ;
#34 = AXIS2_PLACEMENT_3D ( 'NONE', #152, #132, #128 ) ;
#35 = EDGE_LOOP ( 'NONE', ( #52, #155 ) ) ;
#36 = CARTESIAN_POINT ( 'NONE',  ( 7.500000000000000000, -17.60918321028353600, 6.000000000000000000 ) ) ;
#37 = ADVANCED_FACE ( 'NONE', ( #87 ), #25, .F. ) ;
#38 = DIRECTION ( 'NONE',  ( 1.000000000000000000, 0.0000000000000000000, 0.0000000000000000000 ) ) ;
#39 = LINE ( 'NONE', #240, #144 ) ;
#40 = ORIENTED_EDGE ( 'NONE', *, *, #81, .F. ) ;
#41 = LINE ( 'NONE', #271, #169 ) ;
#42 = PRESENTATION_LAYER_ASSIGNMENT (  '', '', ( #184 ) ) ;
#43 = DIRECTION ( 'NONE',  ( 0.0000000000000000000, 0.0000000000000000000, 1.000000000000000000 ) ) ;
#44 = AXIS2_PLACEMENT_3D ( 'NONE', #55, #43, #38 ) ;
#45 = EDGE_LOOP ( 'NONE', ( #274, #233 ) ) ;
#46 = EDGE_CURVE ( 'NONE', #205, #178, #30, .T. ) ;
#47 = DIRECTION ( 'NONE',  ( -0.0000000000000000000, -0.0000000000000000000, -1.000000000000000000 ) ) ;
#48 =( GEOMETRIC_REPRESENTATION_CONTEXT ( 3 ) GLOBAL_UNCERTAINTY_ASSIGNED_CONTEXT ( ( #210 ) ) GLOBAL_UNIT_ASSIGNED_CONTEXT ( ( #143, #137, #136 ) ) REPRESENTATION_CONTEXT ( 'NONE', 'WORKASPACE' ) );
#49 = FACE_BOUND ( 'NONE', #35, .T. ) ;
#50 = VERTEX_POINT ( 'NONE', #23 ) ;
#51 = VECTOR ( 'NONE', #96, 1000.000000000000000 ) ;
#52 = ORIENTED_EDGE ( 'NONE', *, *, #114, .T. ) ;
#53 = CARTESIAN_POINT ( 'NONE',  ( 0.0000000000000000000, 0.0000000000000000000, 0.0000000000000000000 ) ) ;
#54 = APPLICATION_PROTOCOL_DEFINITION ( 'draft international standard', 'automotive_design', 1998, #94 ) ;
#55 = CARTESIAN_POINT ( 'NONE',  ( 0.0000000000000000000, 0.0000000000000000000, 0.0000000000000000000 ) ) ;
#56 =( NAMED_UNIT ( * ) PLANE_ANGLE_UNIT ( ) SI_UNIT ( $, .RADIAN. ) );
#57 = CARTESIAN_POINT ( 'NONE',  ( 7.500000000000000000, 8.948929172439203900, 6.000000000000000000 ) ) ;
#58 = ADVANCED_FACE ( 'NONE', ( #19 ), #18, .F. ) ;
#59 = VERTEX_POINT ( 'NONE', #16 ) ;
#60 = VECTOR ( 'NONE', #116, 1000.000000000000000 ) ;
#61 = DIRECTION ( 'NONE',  ( -1.000000000000000000, 0.0000000000000000000, 0.0000000000000000000 ) ) ;
#62 = CARTESIAN_POINT ( 'NONE',  ( 0.0000000000000000000, 0.0000000000000000000, 6.000000000000000000 ) ) ;
#63 = MECHANICAL_DESIGN_GEOMETRIC_PRESENTATION_REPRESENTATION (  '', ( #120 ), #48 ) ;
#64 = DIRECTION ( 'NONE',  ( -0.0000000000000000000, -0.0000000000000000000, -1.000000000000000000 ) ) ;
#65 = SURFACE_STYLE_USAGE ( .BOTH. , #67 ) ;
#66 = ORIENTED_EDGE ( 'NONE', *, *, #183, .F. ) ;
#67 = SURFACE_SIDE_STYLE ('',( #8 ) ) ;
#68 = VECTOR ( 'NONE', #99, 1000.000000000000000 ) ;
#69 = FILL_AREA_STYLE ('',( #103 ) ) ;
#70 =( LENGTH_UNIT ( ) NAMED_UNIT ( * ) SI_UNIT ( .MILLI., .METRE. ) );
#71 = ORIENTED_EDGE ( 'NONE', *, *, #183, .T. ) ;
#72 = APPLICATION_CONTEXT ( 'automotive_design' ) ;
#73 = VERTEX_POINT ( 'NONE', #265 ) ;
#74 = APPLICATION_PROTOCOL_DEFINITION ( 'draft international standard', 'automotive_design', 1998, #72 ) ;
#75 =( NAMED_UNIT ( * ) SI_UNIT ( $, .STERADIAN. ) SOLID_ANGLE_UNIT ( ) );
#76 =( NAMED_UNIT ( * ) PLANE_ANGLE_UNIT ( ) SI_UNIT ( $, .RADIAN. ) );
#77 = DIRECTION ( 'NONE',  ( 1.000000000000000000, 0.0000000000000000000, 0.0000000000000000000 ) ) ;
#78 = EDGE_LOOP ( 'NONE', ( #142, #234, #272, #251 ) ) ;
#79 =( LENGTH_UNIT ( ) NAMED_UNIT ( * ) SI_UNIT ( .MILLI., .METRE. ) );
#80 = DIRECTION ( 'NONE',  ( -0.0000000000000000000, -0.0000000000000000000, -1.000000000000000000 ) ) ;
#81 = EDGE_CURVE ( 'NONE', #86, #73, #41, .T. ) ;
#82 = AXIS2_PLACEMENT_3D ( 'NONE', #31, #3, #1 ) ;
#83 = VERTEX_POINT ( 'NONE', #33 ) ;
#84 = ADVANCED_BREP_SHAPE_REPRESENTATION ( '096pr0231506m8', ( #232, #177 ), #22 ) ;
#85 = VECTOR ( 'NONE', #47, 1000.000000000000000 ) ;
#86 = VERTEX_POINT ( 'NONE', #203 ) ;
#87 = FACE_OUTER_BOUND ( 'NONE', #266, .T. ) ;
#88 = VERTEX_POINT ( 'NONE', #219 ) ;
#89 = LINE ( 'NONE', #223, #239 ) ;
#90 = CARTESIAN_POINT ( 'NONE',  ( -7.500000000000000000, 17.60918321028354000, 6.000000000000000000 ) ) ;
#91 = PLANE ( 'NONE',  #34 ) ;
#92 = VECTOR ( 'NONE', #262, 1000.000000000000000 ) ;
#93 = ORIENTED_EDGE ( 'NONE', *, *, #225, .T. ) ;
#94 = APPLICATION_CONTEXT ( 'automotive_design' ) ;
#95 = LINE ( 'NONE', #90, #150 ) ;
#96 = DIRECTION ( 'NONE',  ( 6.531802603205050600E-017, -1.000000000000000000, -0.0000000000000000000 ) ) ;
#97 = CIRCLE ( 'NONE', #196, 3.300000000000000300 ) ;
#98 = CARTESIAN_POINT ( 'NONE',  ( 0.0000000000000000000, 0.0000000000000000000, 0.0000000000000000000 ) ) ;
#99 = DIRECTION ( 'NONE',  ( 6.531802603205050600E-017, -1.000000000000000000, -0.0000000000000000000 ) ) ;
#100 = EDGE_CURVE ( 'NONE', #101, #86, #105, .T. ) ;
#101 = VERTEX_POINT ( 'NONE', #189 ) ;
#102 = CARTESIAN_POINT ( 'NONE',  ( -7.499999999999998200, -8.948929172439203900, 0.0000000000000000000 ) ) ;
#103 = FILL_AREA_STYLE_COLOUR ( '', #231 ) ;
#104 = ORIENTED_EDGE ( 'NONE', *, *, #126, .F. ) ;
#105 = CIRCLE ( 'NONE', #165, 3.300000000000000300 ) ;
#106 = CARTESIAN_POINT ( 'NONE',  ( 7.500000000000000000, -17.60918321028353600, 0.0000000000000000000 ) ) ;
#107 = DIRECTION ( 'NONE',  ( 0.4999999999999977200, 0.8660254037844399300, -0.0000000000000000000 ) ) ;
#108 = AXIS2_PLACEMENT_3D ( 'NONE', #185, #222, #180 ) ;
#109 = DIRECTION ( 'NONE',  ( 0.8660254037844398200, -0.4999999999999977200, -0.0000000000000000000 ) ) ;
#110 = LINE ( 'NONE', #145, #85 ) ;
#111 = ORIENTED_EDGE ( 'NONE', *, *, #175, .T. ) ;
#112 = LINE ( 'NONE', #57, #60 ) ;
#113 = ORIENTED_EDGE ( 'NONE', *, *, #194, .T. ) ;
#114 = EDGE_CURVE ( 'NONE', #50, #73, #162, .T. ) ;
#115 = DIRECTION ( 'NONE',  ( -0.0000000000000000000, -0.0000000000000000000, -1.000000000000000000 ) ) ;
#116 = DIRECTION ( 'NONE',  ( -0.0000000000000000000, -0.0000000000000000000, -1.000000000000000000 ) ) ;
#117 = VERTEX_POINT ( 'NONE', #238 ) ;
#118 = DIRECTION ( 'NONE',  ( -6.531802603205050600E-017, 1.000000000000000000, 0.0000000000000000000 ) ) ;
#119 = DIRECTION ( 'NONE',  ( 1.000000000000000000, 6.531802603205050600E-017, -0.0000000000000000000 ) ) ;
#120 = STYLED_ITEM ( 'NONE', ( #32 ), #232 ) ;
#121 = CARTESIAN_POINT ( 'NONE',  ( -7.499999999999998200, -8.948929172439203900, 6.000000000000000000 ) ) ;
#122 = PLANE ( 'NONE',  #195 ) ;
#123 = ORIENTED_EDGE ( 'NONE', *, *, #259, .T. ) ;
#124 = FACE_OUTER_BOUND ( 'NONE', #186, .T. ) ;
#125 = VECTOR ( 'NONE', #179, 1000.000000000000000 ) ;
#126 = EDGE_CURVE ( 'NONE', #101, #50, #110, .T. ) ;
#127 = AXIS2_PLACEMENT_3D ( 'NONE', #209, #197, #188 ) ;
#128 = DIRECTION ( 'NONE',  ( 1.000000000000000000, 0.0000000000000000000, 0.0000000000000000000 ) ) ;
#129 = ORIENTED_EDGE ( 'NONE', *, *, #11, .T. ) ;
#130 = ADVANCED_FACE ( 'NONE', ( #138 ), #269, .F. ) ;
#131 = ORIENTED_EDGE ( 'NONE', *, *, #160, .T. ) ;
#132 = DIRECTION ( 'NONE',  ( -0.0000000000000000000, 0.0000000000000000000, 1.000000000000000000 ) ) ;
#133 = LINE ( 'NONE', #260, #92 ) ;
#134 = PRESENTATION_LAYER_ASSIGNMENT (  '', '', ( #120 ) ) ;
#135 = UNCERTAINTY_MEASURE_WITH_UNIT (LENGTH_MEASURE( 1.000000000000000100E-005 ), #79, 'distance_accuracy_value', 'NONE');
#136 =( NAMED_UNIT ( * ) SI_UNIT ( $, .STERADIAN. ) SOLID_ANGLE_UNIT ( ) );
#137 =( NAMED_UNIT ( * ) PLANE_ANGLE_UNIT ( ) SI_UNIT ( $, .RADIAN. ) );
#138 = FACE_OUTER_BOUND ( 'NONE', #263, .T. ) ;
#139 = DIRECTION ( 'NONE',  ( 1.000000000000000000, 0.0000000000000000000, 0.0000000000000000000 ) ) ;
#140 = DIRECTION ( 'NONE',  ( 0.0000000000000000000, 0.0000000000000000000, 1.000000000000000000 ) ) ;
#141 = VECTOR ( 'NONE', #64, 1000.000000000000000 ) ;
#142 = ORIENTED_EDGE ( 'NONE', *, *, #268, .T. ) ;
#143 =( LENGTH_UNIT ( ) NAMED_UNIT ( * ) SI_UNIT ( .MILLI., .METRE. ) );
#144 = VECTOR ( 'NONE', #224, 1000.000000000000100 ) ;
#145 = CARTESIAN_POINT ( 'NONE',  ( -3.300000000000000300, 0.0000000000000000000, 6.000000000000000000 ) ) ;
#146 = EDGE_CURVE ( 'NONE', #88, #9, #133, .T. ) ;
#147 = SURFACE_STYLE_USAGE ( .BOTH. , #148 ) ;
#148 = SURFACE_SIDE_STYLE ('',( #153 ) ) ;
#149 = EDGE_LOOP ( 'NONE', ( #163, #276, #66, #172 ) ) ;
#150 = VECTOR ( 'NONE', #80, 1000.000000000000000 ) ;
#151 = CLOSED_SHELL ( 'NONE', ( #37, #15, #157, #212, #250, #130, #58, #227 ) ) ;
#152 = CARTESIAN_POINT ( 'NONE',  ( 7.500000000000000000, 8.948929172439203900, 6.000000000000000000 ) ) ;
#153 = SURFACE_STYLE_FILL_AREA ( #167 ) ;
#154 = CARTESIAN_POINT ( 'NONE',  ( 7.500000000000000000, -17.60918321028353600, 6.000000000000000000 ) ) ;
#155 = ORIENTED_EDGE ( 'NONE', *, *, #29, .T. ) ;
#156 = SHAPE_DEFINITION_REPRESENTATION ( #275, #84 ) ;
#157 = ADVANCED_FACE ( 'NONE', ( #124, #49 ), #226, .F. ) ;
#158 = VECTOR ( 'NONE', #109, 1000.000000000000100 ) ;
#159 = CIRCLE ( 'NONE', #44, 3.300000000000000300 ) ;
#160 = EDGE_CURVE ( 'NONE', #9, #173, #17, .T. ) ;
#161 = ORIENTED_EDGE ( 'NONE', *, *, #126, .T. ) ;
#162 = CIRCLE ( 'NONE', #270, 3.300000000000000300 ) ;
#163 = ORIENTED_EDGE ( 'NONE', *, *, #248, .T. ) ;
#164 = LINE ( 'NONE', #106, #158 ) ;
#165 = AXIS2_PLACEMENT_3D ( 'NONE', #200, #170, #139 ) ;
#166 = MECHANICAL_DESIGN_GEOMETRIC_PRESENTATION_REPRESENTATION (  '', ( #184 ), #12 ) ;
#167 = FILL_AREA_STYLE ('',( #168 ) ) ;
#168 = FILL_AREA_STYLE_COLOUR ( '', #199 ) ;
#169 = VECTOR ( 'NONE', #241, 1000.000000000000000 ) ;
#170 = DIRECTION ( 'NONE',  ( 0.0000000000000000000, 0.0000000000000000000, 1.000000000000000000 ) ) ;
#171 = CARTESIAN_POINT ( 'NONE',  ( 7.500000000000000000, -17.60918321028353600, 0.0000000000000000000 ) ) ;
#172 = ORIENTED_EDGE ( 'NONE', *, *, #46, .T. ) ;
#173 = VERTEX_POINT ( 'NONE', #257 ) ;
#174 = DIRECTION ( 'NONE',  ( -0.0000000000000000000, -0.0000000000000000000, -1.000000000000000000 ) ) ;
#175 = EDGE_CURVE ( 'NONE', #173, #205, #39, .T. ) ;
#176 = AXIS2_PLACEMENT_3D ( 'NONE', #254, #244, #243 ) ;
#177 = AXIS2_PLACEMENT_3D ( 'NONE', #98, #26, #10 ) ;
#178 = VERTEX_POINT ( 'NONE', #235 ) ;
#179 = DIRECTION ( 'NONE',  ( 0.0000000000000000000, 1.000000000000000000, 0.0000000000000000000 ) ) ;
#180 = DIRECTION ( 'NONE',  ( -1.000000000000000000, 0.0000000000000000000, 0.0000000000000000000 ) ) ;
#181 = ORIENTED_EDGE ( 'NONE', *, *, #20, .F. ) ;
#182 = LINE ( 'NONE', #171, #125 ) ;
#183 = EDGE_CURVE ( 'NONE', #205, #88, #89, .T. ) ;
#184 = STYLED_ITEM ( 'NONE', ( #4 ), #84 ) ;
#185 = CARTESIAN_POINT ( 'NONE',  ( 0.0000000000000000000, 0.0000000000000000000, 6.000000000000000000 ) ) ;
#186 = EDGE_LOOP ( 'NONE', ( #215, #7, #255, #13 ) ) ;
#187 = DIRECTION ( 'NONE',  ( -0.8660254037844398200, 0.4999999999999979500, -0.0000000000000000000 ) ) ;
#188 = DIRECTION ( 'NONE',  ( 0.8660254037844397100, -0.4999999999999979500, 0.0000000000000000000 ) ) ;
#189 = CARTESIAN_POINT ( 'NONE',  ( -3.300000000000000300, 0.0000000000000000000, 6.000000000000000000 ) ) ;
#190 = CYLINDRICAL_SURFACE ( 'NONE', #108, 3.300000000000000300 ) ;
#191 = PRODUCT_DEFINITION ( 'UNKNOWN', '', #202, #261 ) ;
#192 = ORIENTED_EDGE ( 'NONE', *, *, #114, .F. ) ;
#193 = FACE_BOUND ( 'NONE', #45, .T. ) ;
#194 = EDGE_CURVE ( 'NONE', #86, #101, #97, .T. ) ;
#195 = AXIS2_PLACEMENT_3D ( 'NONE', #121, #119, #118 ) ;
#196 = AXIS2_PLACEMENT_3D ( 'NONE', #207, #204, #201 ) ;
#197 = DIRECTION ( 'NONE',  ( -0.4999999999999980000, -0.8660254037844398200, 0.0000000000000000000 ) ) ;
#198 = ORIENTED_EDGE ( 'NONE', *, *, #175, .F. ) ;
#199 = COLOUR_RGB ( '',0.5294117647058823600, 0.5490196078431373000, 0.5490196078431373000 ) ;
#200 = CARTESIAN_POINT ( 'NONE',  ( 0.0000000000000000000, 0.0000000000000000000, 6.000000000000000000 ) ) ;
#201 = DIRECTION ( 'NONE',  ( 1.000000000000000000, 0.0000000000000000000, 0.0000000000000000000 ) ) ;
#202 = PRODUCT_DEFINITION_FORMATION_WITH_SPECIFIED_SOURCE ( 'ANY', '', #264, .NOT_KNOWN. ) ;
#203 = CARTESIAN_POINT ( 'NONE',  ( 3.300000000000000300, 4.041334437186266000E-016, 6.000000000000000000 ) ) ;
#204 = DIRECTION ( 'NONE',  ( 0.0000000000000000000, 0.0000000000000000000, 1.000000000000000000 ) ) ;
#205 = VERTEX_POINT ( 'NONE', #220 ) ;
#206 = LINE ( 'NONE', #102, #51 ) ;
#207 = CARTESIAN_POINT ( 'NONE',  ( 0.0000000000000000000, 0.0000000000000000000, 6.000000000000000000 ) ) ;
#208 = FACE_OUTER_BOUND ( 'NONE', #237, .T. ) ;
#209 = CARTESIAN_POINT ( 'NONE',  ( -7.500000000000000000, 17.60918321028354000, 6.000000000000000000 ) ) ;
#210 = UNCERTAINTY_MEASURE_WITH_UNIT (LENGTH_MEASURE( 1.000000000000000100E-005 ), #143, 'distance_accuracy_value', 'NONE');
#211 = AXIS2_PLACEMENT_3D ( 'NONE', #154, #107, #267 ) ;
#212 = ADVANCED_FACE ( 'NONE', ( #247 ), #242, .F. ) ;
#213 = ORIENTED_EDGE ( 'NONE', *, *, #2, .T. ) ;
#214 = UNCERTAINTY_MEASURE_WITH_UNIT (LENGTH_MEASURE( 1.000000000000000100E-005 ), #70, 'distance_accuracy_value', 'NONE');
#215 = ORIENTED_EDGE ( 'NONE', *, *, #225, .F. ) ;
#216 = PRODUCT_RELATED_PRODUCT_CATEGORY ( 'part', '', ( #264 ) ) ;
#217 = ORIENTED_EDGE ( 'NONE', *, *, #46, .F. ) ;
#218 = CARTESIAN_POINT ( 'NONE',  ( -7.500000000000000000, 17.60918321028354000, 0.0000000000000000000 ) ) ;
#219 = CARTESIAN_POINT ( 'NONE',  ( 7.500000000000000000, 8.948929172439203900, 6.000000000000000000 ) ) ;
#220 = CARTESIAN_POINT ( 'NONE',  ( 7.500000000000000000, -17.60918321028353600, 6.000000000000000000 ) ) ;
#221 = DIRECTION ( 'NONE',  ( 0.0000000000000000000, 1.000000000000000000, 0.0000000000000000000 ) ) ;
#222 = DIRECTION ( 'NONE',  ( -0.0000000000000000000, -0.0000000000000000000, -1.000000000000000000 ) ) ;
#223 = CARTESIAN_POINT ( 'NONE',  ( 7.500000000000000000, -17.60918321028353600, 6.000000000000000000 ) ) ;
#224 = DIRECTION ( 'NONE',  ( 0.8660254037844398200, -0.4999999999999977200, -0.0000000000000000000 ) ) ;
#225 = EDGE_CURVE ( 'NONE', #83, #59, #252, .T. ) ;
#226 = PLANE ( 'NONE',  #176 ) ;
#227 = ADVANCED_FACE ( 'NONE', ( #27 ), #190, .F. ) ;
#228 = ORIENTED_EDGE ( 'NONE', *, *, #29, .F. ) ;
#229 = CARTESIAN_POINT ( 'NONE',  ( -7.499999999999998200, -8.948929172439203900, 6.000000000000000000 ) ) ;
#230 = ORIENTED_EDGE ( 'NONE', *, *, #146, .T. ) ;
#231 = COLOUR_RGB ( '',0.5294117647058823600, 0.5490196078431373000, 0.5490196078431373000 ) ;
#232 = MANIFOLD_SOLID_BREP ( 'Basis-Linear austragen', #151 ) ;
#233 = ORIENTED_EDGE ( 'NONE', *, *, #194, .F. ) ;
#234 = ORIENTED_EDGE ( 'NONE', *, *, #11, .F. ) ;
#235 = CARTESIAN_POINT ( 'NONE',  ( 7.500000000000000000, -17.60918321028353600, 0.0000000000000000000 ) ) ;
#236 = CARTESIAN_POINT ( 'NONE',  ( -7.499999999999998200, -8.948929172439203900, 6.000000000000000000 ) ) ;
#237 = EDGE_LOOP ( 'NONE', ( #230, #131, #111, #71 ) ) ;
#238 = CARTESIAN_POINT ( 'NONE',  ( -7.499999999999998200, -8.948929172439203900, 0.0000000000000000000 ) ) ;
#239 = VECTOR ( 'NONE', #221, 1000.000000000000000 ) ;
#240 = CARTESIAN_POINT ( 'NONE',  ( 7.500000000000000000, -17.60918321028353600, 6.000000000000000000 ) ) ;
#241 = DIRECTION ( 'NONE',  ( -0.0000000000000000000, -0.0000000000000000000, -1.000000000000000000 ) ) ;
#242 = PLANE ( 'NONE',  #127 ) ;
#243 = DIRECTION ( 'NONE',  ( 1.000000000000000000, 0.0000000000000000000, 0.0000000000000000000 ) ) ;
#244 = DIRECTION ( 'NONE',  ( -0.0000000000000000000, 0.0000000000000000000, 1.000000000000000000 ) ) ;
#245 = VECTOR ( 'NONE', #174, 1000.000000000000000 ) ;
#246 = ORIENTED_EDGE ( 'NONE', *, *, #100, .T. ) ;
#247 = FACE_OUTER_BOUND ( 'NONE', #5, .T. ) ;
#248 = EDGE_CURVE ( 'NONE', #178, #83, #182, .T. ) ;
#249 = EDGE_LOOP ( 'NONE', ( #40, #113, #161, #228 ) ) ;
#250 = ADVANCED_FACE ( 'NONE', ( #256 ), #122, .F. ) ;
#251 = ORIENTED_EDGE ( 'NONE', *, *, #20, .T. ) ;
#252 = LINE ( 'NONE', #218, #21 ) ;
#253 = AXIS2_PLACEMENT_3D ( 'NONE', #62, #115, #61 ) ;
#254 = CARTESIAN_POINT ( 'NONE',  ( 7.500000000000000000, 8.948929172439203900, 0.0000000000000000000 ) ) ;
#255 = ORIENTED_EDGE ( 'NONE', *, *, #259, .F. ) ;
#256 = FACE_OUTER_BOUND ( 'NONE', #78, .T. ) ;
#257 = CARTESIAN_POINT ( 'NONE',  ( -7.499999999999998200, -8.948929172439203900, 6.000000000000000000 ) ) ;
#258 = LINE ( 'NONE', #229, #245 ) ;
#259 = EDGE_CURVE ( 'NONE', #117, #178, #164, .T. ) ;
#260 = CARTESIAN_POINT ( 'NONE',  ( -7.500000000000000000, 17.60918321028354000, 6.000000000000000000 ) ) ;
#261 = PRODUCT_DEFINITION_CONTEXT ( 'detailed design', #94, 'design' ) ;
#262 = DIRECTION ( 'NONE',  ( -0.8660254037844398200, 0.4999999999999979500, -0.0000000000000000000 ) ) ;
#263 = EDGE_LOOP ( 'NONE', ( #123, #217, #198, #129 ) ) ;
#264 = PRODUCT ( '096pr0231506m8', '096pr0231506m8', '', ( #6 ) ) ;
#265 = CARTESIAN_POINT ( 'NONE',  ( 3.300000000000000300, 4.041334437186266000E-016, 0.0000000000000000000 ) ) ;
#266 = EDGE_LOOP ( 'NONE', ( #246, #24, #192, #104 ) ) ;
#267 = DIRECTION ( 'NONE',  ( -0.8660254037844399300, 0.4999999999999977200, 0.0000000000000000000 ) ) ;
#268 = EDGE_CURVE ( 'NONE', #59, #117, #206, .T. ) ;
#269 = PLANE ( 'NONE',  #211 ) ;
#270 = AXIS2_PLACEMENT_3D ( 'NONE', #53, #140, #77 ) ;
#271 = CARTESIAN_POINT ( 'NONE',  ( 3.300000000000000300, 4.041334437186266000E-016, 6.000000000000000000 ) ) ;
#272 = ORIENTED_EDGE ( 'NONE', *, *, #160, .F. ) ;
#273 = CARTESIAN_POINT ( 'NONE',  ( -7.500000000000000000, 17.60918321028354000, 6.000000000000000000 ) ) ;
#274 = ORIENTED_EDGE ( 'NONE', *, *, #100, .F. ) ;
#275 = PRODUCT_DEFINITION_SHAPE ( 'NONE', 'NONE',  #191 ) ;
#276 = ORIENTED_EDGE ( 'NONE', *, *, #2, .F. ) ;
ENDSEC;
END-ISO-10303-21;
