ISO-10303-21;
HEADER;
FILE_DESCRIPTION (( 'STEP AP214' ),
    '1' );
FILE_NAME ('096pr0201304m6.STEP',
    '2014-08-18T13:04:57',
    ( '' ),
    ( '' ),
    'SwSTEP 2.0',
    'SolidWorks 2014',
    '' );
FILE_SCHEMA (( 'AUTOMOTIVE_DESIGN' ));
ENDSEC;

DATA;
#1 = CARTESIAN_POINT ( 'NONE',  ( 0.0000000000000000000, 0.0000000000000000000, 4.000000000000000000 ) ) ;
#2 = EDGE_CURVE ( 'NONE', #25, #182, #171, .T. ) ;
#3 = CARTESIAN_POINT ( 'NONE',  ( 13.00000000000000000, 5.787972909010931300, 4.000000000000000000 ) ) ;
#4 = VERTEX_POINT ( 'NONE', #94 ) ;
#5 = ORIENTED_EDGE ( 'NONE', *, *, #167, .F. ) ;
#6 = CARTESIAN_POINT ( 'NONE',  ( 13.00000000000000000, 27.68069847913184100, 4.000000000000000000 ) ) ;
#7 = ORIENTED_EDGE ( 'NONE', *, *, #39, .F. ) ;
#8 = UNCERTAINTY_MEASURE_WITH_UNIT (LENGTH_MEASURE( 1.000000000000000100E-005 ), #106, 'distance_accuracy_value', 'NONE');
#9 = SURFACE_STYLE_FILL_AREA ( #60 ) ;
#10 = APPLICATION_CONTEXT ( 'automotive_design' ) ;
#11 = EDGE_CURVE ( 'NONE', #140, #14, #197, .T. ) ;
#12 = DIRECTION ( 'NONE',  ( 0.0000000000000000000, 1.000000000000000000, 0.0000000000000000000 ) ) ;
#13 = AXIS2_PLACEMENT_3D ( 'NONE', #276, #17, #16 ) ;
#14 = VERTEX_POINT ( 'NONE', #117 ) ;
#15 = ADVANCED_FACE ( 'NONE', ( #112, #96 ), #21, .F. ) ;
#16 = DIRECTION ( 'NONE',  ( 1.000000000000000000, 0.0000000000000000000, -0.0000000000000000000 ) ) ;
#17 = DIRECTION ( 'NONE',  ( 0.0000000000000000000, 0.0000000000000000000, 1.000000000000000000 ) ) ;
#18 = CIRCLE ( 'NONE', #219, 2.500000000000000400 ) ;
#19 = VERTEX_POINT ( 'NONE', #48 ) ;
#20 = PRESENTATION_LAYER_ASSIGNMENT (  '', '', ( #204 ) ) ;
#21 = PLANE ( 'NONE',  #13 ) ;
#22 = LINE ( 'NONE', #176, #210 ) ;
#23 =( NAMED_UNIT ( * ) SI_UNIT ( $, .STERADIAN. ) SOLID_ANGLE_UNIT ( ) );
#24 = COLOUR_RGB ( '',0.5294117647058823600, 0.5490196078431373000, 0.5490196078431373000 ) ;
#25 = VERTEX_POINT ( 'NONE', #220 ) ;
#26 = CIRCLE ( 'NONE', #238, 2.500000000000000400 ) ;
#27 = DIRECTION ( 'NONE',  ( 1.000000000000000000, 0.0000000000000000000, 0.0000000000000000000 ) ) ;
#28 = UNCERTAINTY_MEASURE_WITH_UNIT (LENGTH_MEASURE( 1.000000000000000100E-005 ), #41, 'distance_accuracy_value', 'NONE');
#29 = ORIENTED_EDGE ( 'NONE', *, *, #54, .F. ) ;
#30 = DIRECTION ( 'NONE',  ( 0.0000000000000000000, 0.0000000000000000000, 1.000000000000000000 ) ) ;
#31 = CARTESIAN_POINT ( 'NONE',  ( 6.500000000000000900, 13.84034923956592100, 4.000000000000000000 ) ) ;
#32 = LINE ( 'NONE', #229, #179 ) ;
#33 = LINE ( 'NONE', #252, #149 ) ;
#35 =( NAMED_UNIT ( * ) PLANE_ANGLE_UNIT ( ) SI_UNIT ( $, .RADIAN. ) );
#34 = STYLED_ITEM ( 'NONE', ( #118 ), #122 ) ;
#36 = EDGE_LOOP ( 'NONE', ( #188, #57 ) ) ;
#37 = FACE_OUTER_BOUND ( 'NONE', #200, .T. ) ;
#38 = SURFACE_SIDE_STYLE ('',( #9 ) ) ;
#39 = EDGE_CURVE ( 'NONE', #232, #226, #89, .T. ) ;
#40 = AXIS2_PLACEMENT_3D ( 'NONE', #180, #156, #155 ) ;
#41 =( LENGTH_UNIT ( ) NAMED_UNIT ( * ) SI_UNIT ( .MILLI., .METRE. ) );
#42 = SURFACE_STYLE_USAGE ( .BOTH. , #38 ) ;
#43 = ADVANCED_FACE ( 'NONE', ( #82, #72 ), #133, .T. ) ;
#44 = EDGE_LOOP ( 'NONE', ( #192, #239, #100, #62 ) ) ;
#45 = CYLINDRICAL_SURFACE ( 'NONE', #109, 2.500000000000000400 ) ;
#46 = MANIFOLD_SOLID_BREP ( 'Basis-Linear austragen', #213 ) ;
#47 = VECTOR ( 'NONE', #147, 1000.000000000000000 ) ;
#48 = CARTESIAN_POINT ( 'NONE',  ( 4.000000000000000000, 13.84034923956592100, 0.0000000000000000000 ) ) ;
#49 = EDGE_CURVE ( 'NONE', #232, #225, #56, .T. ) ;
#50 = PRESENTATION_LAYER_ASSIGNMENT (  '', '', ( #34 ) ) ;
#51 = ORIENTED_EDGE ( 'NONE', *, *, #203, .T. ) ;
#52 = CIRCLE ( 'NONE', #137, 2.500000000000000400 ) ;
#53 = PRODUCT_DEFINITION_CONTEXT ( 'detailed design', #10, 'design' ) ;
#54 = EDGE_CURVE ( 'NONE', #225, #25, #267, .T. ) ;
#55 = AXIS2_PLACEMENT_3D ( 'NONE', #125, #123, #110 ) ;
#56 = LINE ( 'NONE', #64, #93 ) ;
#57 = ORIENTED_EDGE ( 'NONE', *, *, #268, .T. ) ;
#58 = VECTOR ( 'NONE', #231, 1000.000000000000000 ) ;
#59 = MECHANICAL_DESIGN_GEOMETRIC_PRESENTATION_REPRESENTATION (  '', ( #34 ), #68 ) ;
#60 = FILL_AREA_STYLE ('',( #142 ) ) ;
#61 = PLANE ( 'NONE',  #144 ) ;
#62 = ORIENTED_EDGE ( 'NONE', *, *, #258, .F. ) ;
#63 = ADVANCED_FACE ( 'NONE', ( #37 ), #263, .F. ) ;
#64 = CARTESIAN_POINT ( 'NONE',  ( 0.0000000000000000000, 0.0000000000000000000, 4.000000000000000000 ) ) ;
#65 = DIRECTION ( 'NONE',  ( 1.000000000000000000, 0.0000000000000000000, -0.0000000000000000000 ) ) ;
#66 = AXIS2_PLACEMENT_3D ( 'NONE', #207, #199, #194 ) ;
#67 = ORIENTED_EDGE ( 'NONE', *, *, #152, .F. ) ;
#68 =( GEOMETRIC_REPRESENTATION_CONTEXT ( 3 ) GLOBAL_UNCERTAINTY_ASSIGNED_CONTEXT ( ( #159 ) ) GLOBAL_UNIT_ASSIGNED_CONTEXT ( ( #78, #76, #74 ) ) REPRESENTATION_CONTEXT ( 'NONE', 'WORKASPACE' ) );
#69 = DIRECTION ( 'NONE',  ( 0.0000000000000000000, 0.0000000000000000000, 1.000000000000000000 ) ) ;
#70 = PRODUCT_CONTEXT ( 'NONE', #95, 'mechanical' ) ;
#71 = DIRECTION ( 'NONE',  ( 1.000000000000000000, 0.0000000000000000000, 0.0000000000000000000 ) ) ;
#72 = FACE_BOUND ( 'NONE', #264, .T. ) ;
#73 = DIRECTION ( 'NONE',  ( 0.0000000000000000000, 0.0000000000000000000, 1.000000000000000000 ) ) ;
#74 =( NAMED_UNIT ( * ) SI_UNIT ( $, .STERADIAN. ) SOLID_ANGLE_UNIT ( ) );
#75 = ORIENTED_EDGE ( 'NONE', *, *, #268, .F. ) ;
#76 =( NAMED_UNIT ( * ) PLANE_ANGLE_UNIT ( ) SI_UNIT ( $, .RADIAN. ) );
#77 = ORIENTED_EDGE ( 'NONE', *, *, #54, .T. ) ;
#78 =( LENGTH_UNIT ( ) NAMED_UNIT ( * ) SI_UNIT ( .MILLI., .METRE. ) );
#79 = SURFACE_STYLE_USAGE ( .BOTH. , #81 ) ;
#80 = CARTESIAN_POINT ( 'NONE',  ( 0.0000000000000000000, 21.89272557012090900, 4.000000000000000000 ) ) ;
#81 = SURFACE_SIDE_STYLE ('',( #111 ) ) ;
#82 = FACE_OUTER_BOUND ( 'NONE', #260, .T. ) ;
#83 = LINE ( 'NONE', #6, #201 ) ;
#84 = APPLICATION_PROTOCOL_DEFINITION ( 'draft international standard', 'automotive_design', 1998, #10 ) ;
#85 = ORIENTED_EDGE ( 'NONE', *, *, #273, .T. ) ;
#86 = DIRECTION ( 'NONE',  ( -0.0000000000000000000, -0.0000000000000000000, -1.000000000000000000 ) ) ;
#87 = EDGE_CURVE ( 'NONE', #25, #140, #83, .T. ) ;
#88 = FILL_AREA_STYLE ('',( #108 ) ) ;
#89 = LINE ( 'NONE', #1, #148 ) ;
#90 = PRODUCT_DEFINITION_SHAPE ( 'NONE', 'NONE',  #139 ) ;
#91 = VERTEX_POINT ( 'NONE', #198 ) ;
#92 = FACE_OUTER_BOUND ( 'NONE', #166, .T. ) ;
#93 = VECTOR ( 'NONE', #181, 999.9999999999998900 ) ;
#94 = CARTESIAN_POINT ( 'NONE',  ( 9.000000000000001800, 13.84034923956592100, 4.000000000000000000 ) ) ;
#95 = APPLICATION_CONTEXT ( 'automotive_design' ) ;
#96 = FACE_BOUND ( 'NONE', #36, .T. ) ;
#97 = ORIENTED_EDGE ( 'NONE', *, *, #102, .T. ) ;
#98 = FACE_OUTER_BOUND ( 'NONE', #161, .T. ) ;
#99 = DIRECTION ( 'NONE',  ( -0.0000000000000000000, -0.0000000000000000000, -1.000000000000000000 ) ) ;
#100 = ORIENTED_EDGE ( 'NONE', *, *, #237, .F. ) ;
#101 = APPLICATION_PROTOCOL_DEFINITION ( 'draft international standard', 'automotive_design', 1998, #95 ) ;
#102 = EDGE_CURVE ( 'NONE', #4, #135, #216, .T. ) ;
#103 =( NAMED_UNIT ( * ) SI_UNIT ( $, .STERADIAN. ) SOLID_ANGLE_UNIT ( ) );
#104 = VECTOR ( 'NONE', #174, 1000.000000000000000 ) ;
#105 =( NAMED_UNIT ( * ) PLANE_ANGLE_UNIT ( ) SI_UNIT ( $, .RADIAN. ) );
#106 =( LENGTH_UNIT ( ) NAMED_UNIT ( * ) SI_UNIT ( .MILLI., .METRE. ) );
#107 = ORIENTED_EDGE ( 'NONE', *, *, #2, .F. ) ;
#108 = FILL_AREA_STYLE_COLOUR ( '', #262 ) ;
#109 = AXIS2_PLACEMENT_3D ( 'NONE', #250, #245, #124 ) ;
#110 = DIRECTION ( 'NONE',  ( 1.000000000000000000, 0.0000000000000000000, 0.0000000000000000000 ) ) ;
#111 = SURFACE_STYLE_FILL_AREA ( #88 ) ;
#112 = FACE_OUTER_BOUND ( 'NONE', #44, .T. ) ;
#113 = ORIENTED_EDGE ( 'NONE', *, *, #152, .T. ) ;
#114 = FACE_OUTER_BOUND ( 'NONE', #256, .T. ) ;
#115 = ADVANCED_FACE ( 'NONE', ( #254 ), #165, .F. ) ;
#116 = EDGE_CURVE ( 'NONE', #91, #4, #18, .T. ) ;
#117 = CARTESIAN_POINT ( 'NONE',  ( 0.0000000000000000000, 21.89272557012090900, 0.0000000000000000000 ) ) ;
#118 = PRESENTATION_STYLE_ASSIGNMENT (( #79 ) ) ;
#119 = AXIS2_PLACEMENT_3D ( 'NONE', #130, #73, #71 ) ;
#120 = ORIENTED_EDGE ( 'NONE', *, *, #185, .F. ) ;
#121 = EDGE_LOOP ( 'NONE', ( #233, #248, #209, #271 ) ) ;
#122 = ADVANCED_BREP_SHAPE_REPRESENTATION ( '096pr0201304m6', ( #46, #119 ), #246 ) ;
#123 = DIRECTION ( 'NONE',  ( 0.0000000000000000000, 0.0000000000000000000, 1.000000000000000000 ) ) ;
#124 = DIRECTION ( 'NONE',  ( -1.000000000000000000, 0.0000000000000000000, 0.0000000000000000000 ) ) ;
#125 = CARTESIAN_POINT ( 'NONE',  ( 6.500000000000000900, 13.84034923956592100, 0.0000000000000000000 ) ) ;
#126 = MECHANICAL_DESIGN_GEOMETRIC_PRESENTATION_REPRESENTATION (  '', ( #204 ), #274 ) ;
#127 = CARTESIAN_POINT ( 'NONE',  ( 13.00000000000000000, 5.787972909010931300, 4.000000000000000000 ) ) ;
#128 = CARTESIAN_POINT ( 'NONE',  ( 9.000000000000001800, 13.84034923956592100, 0.0000000000000000000 ) ) ;
#129 = ORIENTED_EDGE ( 'NONE', *, *, #39, .T. ) ;
#130 = CARTESIAN_POINT ( 'NONE',  ( 0.0000000000000000000, 0.0000000000000000000, 0.0000000000000000000 ) ) ;
#131 = CARTESIAN_POINT ( 'NONE',  ( 6.500000000000000900, 13.84034923956592100, 4.000000000000000000 ) ) ;
#132 = VECTOR ( 'NONE', #86, 1000.000000000000000 ) ;
#133 = PLANE ( 'NONE',  #168 ) ;
#134 = CARTESIAN_POINT ( 'NONE',  ( 0.0000000000000000000, 21.89272557012090900, 4.000000000000000000 ) ) ;
#135 = VERTEX_POINT ( 'NONE', #128 ) ;
#136 = EDGE_CURVE ( 'NONE', #19, #135, #26, .T. ) ;
#137 = AXIS2_PLACEMENT_3D ( 'NONE', #211, #218, #215 ) ;
#138 = DIRECTION ( 'NONE',  ( -0.0000000000000000000, -0.0000000000000000000, -1.000000000000000000 ) ) ;
#139 = PRODUCT_DEFINITION ( 'UNKNOWN', '', #153, #53 ) ;
#140 = VERTEX_POINT ( 'NONE', #80 ) ;
#141 = ADVANCED_FACE ( 'NONE', ( #92 ), #61, .F. ) ;
#142 = FILL_AREA_STYLE_COLOUR ( '', #24 ) ;
#143 = VECTOR ( 'NONE', #184, 1000.000000000000000 ) ;
#144 = AXIS2_PLACEMENT_3D ( 'NONE', #272, #257, #255 ) ;
#145 = ORIENTED_EDGE ( 'NONE', *, *, #193, .T. ) ;
#146 = CARTESIAN_POINT ( 'NONE',  ( 13.00000000000000000, 5.787972909010931300, 0.0000000000000000000 ) ) ;
#147 = DIRECTION ( 'NONE',  ( -0.0000000000000000000, -0.0000000000000000000, -1.000000000000000000 ) ) ;
#148 = VECTOR ( 'NONE', #138, 1000.000000000000000 ) ;
#149 = VECTOR ( 'NONE', #253, 1000.000000000000000 ) ;
#150 = DIRECTION ( 'NONE',  ( 0.0000000000000000000, 1.000000000000000000, 0.0000000000000000000 ) ) ;
#151 = ORIENTED_EDGE ( 'NONE', *, *, #116, .T. ) ;
#152 = EDGE_CURVE ( 'NONE', #91, #19, #33, .T. ) ;
#153 = PRODUCT_DEFINITION_FORMATION_WITH_SPECIFIED_SOURCE ( 'ANY', '', #187, .NOT_KNOWN. ) ;
#154 = CIRCLE ( 'NONE', #55, 2.500000000000000400 ) ;
#155 = DIRECTION ( 'NONE',  ( 0.9135454576426019800, 0.4067366430757979900, 0.0000000000000000000 ) ) ;
#156 = DIRECTION ( 'NONE',  ( 0.4067366430757979900, -0.9135454576426019800, 0.0000000000000000000 ) ) ;
#157 = EDGE_LOOP ( 'NONE', ( #217, #221, #113, #75 ) ) ;
#158 = VECTOR ( 'NONE', #12, 1000.000000000000000 ) ;
#159 = UNCERTAINTY_MEASURE_WITH_UNIT (LENGTH_MEASURE( 1.000000000000000100E-005 ), #78, 'distance_accuracy_value', 'NONE');
#160 = CARTESIAN_POINT ( 'NONE',  ( 13.00000000000000000, 5.787972909010931300, 4.000000000000000000 ) ) ;
#161 = EDGE_LOOP ( 'NONE', ( #151, #97, #242, #67 ) ) ;
#162 = LINE ( 'NONE', #127, #104 ) ;
#163 = ADVANCED_FACE ( 'NONE', ( #98 ), #45, .F. ) ;
#164 = LINE ( 'NONE', #244, #214 ) ;
#165 = CYLINDRICAL_SURFACE ( 'NONE', #186, 2.500000000000000400 ) ;
#166 = EDGE_LOOP ( 'NONE', ( #177, #107, #29, #85 ) ) ;
#167 = EDGE_CURVE ( 'NONE', #140, #232, #265, .T. ) ;
#168 = AXIS2_PLACEMENT_3D ( 'NONE', #160, #69, #65 ) ;
#169 = SHAPE_DEFINITION_REPRESENTATION ( #90, #122 ) ;
#170 = PRODUCT_RELATED_PRODUCT_CATEGORY ( 'part', '', ( #187 ) ) ;
#171 = LINE ( 'NONE', #241, #143 ) ;
#172 = ORIENTED_EDGE ( 'NONE', *, *, #49, .F. ) ;
#173 = FACE_OUTER_BOUND ( 'NONE', #121, .T. ) ;
#174 = DIRECTION ( 'NONE',  ( -0.0000000000000000000, -0.0000000000000000000, -1.000000000000000000 ) ) ;
#175 = DIRECTION ( 'NONE',  ( -0.9135454576426019800, -0.4067366430757979900, 0.0000000000000000000 ) ) ;
#176 = CARTESIAN_POINT ( 'NONE',  ( 13.00000000000000000, 27.68069847913184100, 0.0000000000000000000 ) ) ;
#177 = ORIENTED_EDGE ( 'NONE', *, *, #258, .T. ) ;
#178 = CARTESIAN_POINT ( 'NONE',  ( 13.00000000000000000, 5.787972909010931300, 0.0000000000000000000 ) ) ;
#179 = VECTOR ( 'NONE', #235, 1000.000000000000000 ) ;
#180 = CARTESIAN_POINT ( 'NONE',  ( 13.00000000000000000, 27.68069847913184100, 4.000000000000000000 ) ) ;
#181 = DIRECTION ( 'NONE',  ( 0.9135454576426019800, 0.4067366430757979900, 0.0000000000000000000 ) ) ;
#182 = VERTEX_POINT ( 'NONE', #230 ) ;
#183 = ORIENTED_EDGE ( 'NONE', *, *, #273, .F. ) ;
#184 = DIRECTION ( 'NONE',  ( -0.0000000000000000000, -0.0000000000000000000, -1.000000000000000000 ) ) ;
#185 = EDGE_CURVE ( 'NONE', #4, #91, #52, .T. ) ;
#186 = AXIS2_PLACEMENT_3D ( 'NONE', #131, #99, #196 ) ;
#187 = PRODUCT ( '096pr0201304m6', '096pr0201304m6', '', ( #70 ) ) ;
#188 = ORIENTED_EDGE ( 'NONE', *, *, #136, .T. ) ;
#189 = CARTESIAN_POINT ( 'NONE',  ( 0.0000000000000000000, 0.0000000000000000000, 4.000000000000000000 ) ) ;
#190 = CARTESIAN_POINT ( 'NONE',  ( 0.0000000000000000000, 0.0000000000000000000, 0.0000000000000000000 ) ) ;
#191 = CARTESIAN_POINT ( 'NONE',  ( 9.000000000000001800, 13.84034923956592100, 4.000000000000000000 ) ) ;
#192 = ORIENTED_EDGE ( 'NONE', *, *, #193, .F. ) ;
#193 = EDGE_CURVE ( 'NONE', #226, #275, #164, .T. ) ;
#194 = DIRECTION ( 'NONE',  ( 0.0000000000000000000, 0.0000000000000000000, -1.000000000000000000 ) ) ;
#195 = ORIENTED_EDGE ( 'NONE', *, *, #11, .T. ) ;
#196 = DIRECTION ( 'NONE',  ( -1.000000000000000000, 0.0000000000000000000, 0.0000000000000000000 ) ) ;
#197 = LINE ( 'NONE', #134, #132 ) ;
#198 = CARTESIAN_POINT ( 'NONE',  ( 4.000000000000000000, 13.84034923956592100, 4.000000000000000000 ) ) ;
#199 = DIRECTION ( 'NONE',  ( 1.000000000000000000, 0.0000000000000000000, 0.0000000000000000000 ) ) ;
#200 = EDGE_LOOP ( 'NONE', ( #145, #183, #172, #129 ) ) ;
#201 = VECTOR ( 'NONE', #228, 999.9999999999998900 ) ;
#202 = ORIENTED_EDGE ( 'NONE', *, *, #87, .T. ) ;
#203 = EDGE_CURVE ( 'NONE', #14, #226, #32, .T. ) ;
#204 = STYLED_ITEM ( 'NONE', ( #261 ), #46 ) ;
#205 = VECTOR ( 'NONE', #150, 1000.000000000000000 ) ;
#206 = ORIENTED_EDGE ( 'NONE', *, *, #167, .T. ) ;
#207 = CARTESIAN_POINT ( 'NONE',  ( 0.0000000000000000000, 0.0000000000000000000, 4.000000000000000000 ) ) ;
#208 = PLANE ( 'NONE',  #66 ) ;
#209 = ORIENTED_EDGE ( 'NONE', *, *, #87, .F. ) ;
#210 = VECTOR ( 'NONE', #175, 999.9999999999998900 ) ;
#211 = CARTESIAN_POINT ( 'NONE',  ( 6.500000000000000900, 13.84034923956592100, 4.000000000000000000 ) ) ;
#212 = CARTESIAN_POINT ( 'NONE',  ( 13.00000000000000000, 5.787972909010931300, 4.000000000000000000 ) ) ;
#213 = CLOSED_SHELL ( 'NONE', ( #163, #43, #15, #63, #141, #240, #223, #115 ) ) ;
#214 = VECTOR ( 'NONE', #227, 999.9999999999998900 ) ;
#215 = DIRECTION ( 'NONE',  ( 1.000000000000000000, 0.0000000000000000000, 0.0000000000000000000 ) ) ;
#216 = LINE ( 'NONE', #191, #47 ) ;
#217 = ORIENTED_EDGE ( 'NONE', *, *, #102, .F. ) ;
#218 = DIRECTION ( 'NONE',  ( 0.0000000000000000000, 0.0000000000000000000, 1.000000000000000000 ) ) ;
#219 = AXIS2_PLACEMENT_3D ( 'NONE', #31, #30, #27 ) ;
#220 = CARTESIAN_POINT ( 'NONE',  ( 13.00000000000000000, 27.68069847913184100, 4.000000000000000000 ) ) ;
#221 = ORIENTED_EDGE ( 'NONE', *, *, #185, .T. ) ;
#222 = ORIENTED_EDGE ( 'NONE', *, *, #116, .F. ) ;
#223 = ADVANCED_FACE ( 'NONE', ( #114 ), #208, .F. ) ;
#224 = AXIS2_PLACEMENT_3D ( 'NONE', #251, #247, #236 ) ;
#225 = VERTEX_POINT ( 'NONE', #212 ) ;
#226 = VERTEX_POINT ( 'NONE', #190 ) ;
#227 = DIRECTION ( 'NONE',  ( 0.9135454576426019800, 0.4067366430757979900, 0.0000000000000000000 ) ) ;
#228 = DIRECTION ( 'NONE',  ( -0.9135454576426019800, -0.4067366430757979900, 0.0000000000000000000 ) ) ;
#229 = CARTESIAN_POINT ( 'NONE',  ( 0.0000000000000000000, 0.0000000000000000000, 0.0000000000000000000 ) ) ;
#230 = CARTESIAN_POINT ( 'NONE',  ( 13.00000000000000000, 27.68069847913184100, 0.0000000000000000000 ) ) ;
#231 = DIRECTION ( 'NONE',  ( -0.0000000000000000000, -1.000000000000000000, -0.0000000000000000000 ) ) ;
#232 = VERTEX_POINT ( 'NONE', #189 ) ;
#233 = ORIENTED_EDGE ( 'NONE', *, *, #237, .T. ) ;
#234 = CARTESIAN_POINT ( 'NONE',  ( 0.0000000000000000000, 0.0000000000000000000, 4.000000000000000000 ) ) ;
#235 = DIRECTION ( 'NONE',  ( -0.0000000000000000000, -1.000000000000000000, -0.0000000000000000000 ) ) ;
#236 = DIRECTION ( 'NONE',  ( -0.9135454576426019800, -0.4067366430757979900, 0.0000000000000000000 ) ) ;
#237 = EDGE_CURVE ( 'NONE', #182, #14, #22, .T. ) ;
#238 = AXIS2_PLACEMENT_3D ( 'NONE', #270, #269, #266 ) ;
#239 = ORIENTED_EDGE ( 'NONE', *, *, #203, .F. ) ;
#240 = ADVANCED_FACE ( 'NONE', ( #173 ), #249, .F. ) ;
#241 = CARTESIAN_POINT ( 'NONE',  ( 13.00000000000000000, 27.68069847913184100, 4.000000000000000000 ) ) ;
#242 = ORIENTED_EDGE ( 'NONE', *, *, #136, .F. ) ;
#243 = ORIENTED_EDGE ( 'NONE', *, *, #49, .T. ) ;
#244 = CARTESIAN_POINT ( 'NONE',  ( 0.0000000000000000000, 0.0000000000000000000, 0.0000000000000000000 ) ) ;
#245 = DIRECTION ( 'NONE',  ( -0.0000000000000000000, -0.0000000000000000000, -1.000000000000000000 ) ) ;
#246 =( GEOMETRIC_REPRESENTATION_CONTEXT ( 3 ) GLOBAL_UNCERTAINTY_ASSIGNED_CONTEXT ( ( #8 ) ) GLOBAL_UNIT_ASSIGNED_CONTEXT ( ( #106, #105, #103 ) ) REPRESENTATION_CONTEXT ( 'NONE', 'WORKASPACE' ) );
#247 = DIRECTION ( 'NONE',  ( -0.4067366430757979900, 0.9135454576426019800, 0.0000000000000000000 ) ) ;
#248 = ORIENTED_EDGE ( 'NONE', *, *, #11, .F. ) ;
#249 = PLANE ( 'NONE',  #40 ) ;
#250 = CARTESIAN_POINT ( 'NONE',  ( 6.500000000000000900, 13.84034923956592100, 4.000000000000000000 ) ) ;
#251 = CARTESIAN_POINT ( 'NONE',  ( 0.0000000000000000000, 0.0000000000000000000, 4.000000000000000000 ) ) ;
#252 = CARTESIAN_POINT ( 'NONE',  ( 4.000000000000000000, 13.84034923956592100, 4.000000000000000000 ) ) ;
#253 = DIRECTION ( 'NONE',  ( -0.0000000000000000000, -0.0000000000000000000, -1.000000000000000000 ) ) ;
#254 = FACE_OUTER_BOUND ( 'NONE', #157, .T. ) ;
#255 = DIRECTION ( 'NONE',  ( 0.0000000000000000000, 0.0000000000000000000, 1.000000000000000000 ) ) ;
#256 = EDGE_LOOP ( 'NONE', ( #51, #7, #5, #195 ) ) ;
#257 = DIRECTION ( 'NONE',  ( -1.000000000000000000, 0.0000000000000000000, 0.0000000000000000000 ) ) ;
#258 = EDGE_CURVE ( 'NONE', #275, #182, #259, .T. ) ;
#259 = LINE ( 'NONE', #178, #205 ) ;
#260 = EDGE_LOOP ( 'NONE', ( #243, #77, #202, #206 ) ) ;
#261 = PRESENTATION_STYLE_ASSIGNMENT (( #42 ) ) ;
#262 = COLOUR_RGB ( '',0.5294117647058823600, 0.5490196078431373000, 0.5490196078431373000 ) ;
#263 = PLANE ( 'NONE',  #224 ) ;
#264 = EDGE_LOOP ( 'NONE', ( #222, #120 ) ) ;
#265 = LINE ( 'NONE', #234, #58 ) ;
#266 = DIRECTION ( 'NONE',  ( 1.000000000000000000, 0.0000000000000000000, 0.0000000000000000000 ) ) ;
#267 = LINE ( 'NONE', #3, #158 ) ;
#268 = EDGE_CURVE ( 'NONE', #135, #19, #154, .T. ) ;
#269 = DIRECTION ( 'NONE',  ( 0.0000000000000000000, 0.0000000000000000000, 1.000000000000000000 ) ) ;
#270 = CARTESIAN_POINT ( 'NONE',  ( 6.500000000000000900, 13.84034923956592100, 0.0000000000000000000 ) ) ;
#271 = ORIENTED_EDGE ( 'NONE', *, *, #2, .T. ) ;
#272 = CARTESIAN_POINT ( 'NONE',  ( 13.00000000000000000, 5.787972909010931300, 4.000000000000000000 ) ) ;
#273 = EDGE_CURVE ( 'NONE', #225, #275, #162, .T. ) ;
#274 =( GEOMETRIC_REPRESENTATION_CONTEXT ( 3 ) GLOBAL_UNCERTAINTY_ASSIGNED_CONTEXT ( ( #28 ) ) GLOBAL_UNIT_ASSIGNED_CONTEXT ( ( #41, #35, #23 ) ) REPRESENTATION_CONTEXT ( 'NONE', 'WORKASPACE' ) );
#275 = VERTEX_POINT ( 'NONE', #146 ) ;
#276 = CARTESIAN_POINT ( 'NONE',  ( 13.00000000000000000, 5.787972909010931300, 0.0000000000000000000 ) ) ;
ENDSEC;
END-ISO-10303-21;
