ISO-10303-21;
HEADER;
FILE_DESCRIPTION (( 'STEP AP214' ),
    '1' );
FILE_NAME ('096p0434305m8.STEP',
    '2014-08-18T13:01:58',
    ( '' ),
    ( '' ),
    'SwSTEP 2.0',
    'SolidWorks 2014',
    '' );
FILE_SCHEMA (( 'AUTOMOTIVE_DESIGN' ));
ENDSEC;

DATA;
#1 = PLANE ( 'NONE',  #189 ) ;
#2 = EDGE_CURVE ( 'NONE', #113, #217, #124, .T. ) ;
#3 = DIRECTION ( 'NONE',  ( 0.0000000000000000000, 0.0000000000000000000, -1.000000000000000000 ) ) ;
#4 = LINE ( 'NONE', #19, #172 ) ;
#5 = VERTEX_POINT ( 'NONE', #243 ) ;
#6 = DIRECTION ( 'NONE',  ( 1.000000000000000000, 0.0000000000000000000, 0.0000000000000000000 ) ) ;
#7 = EDGE_LOOP ( 'NONE', ( #105, #228, #92, #187 ) ) ;
#8 = DIRECTION ( 'NONE',  ( -0.0000000000000000000, -0.0000000000000000000, -1.000000000000000000 ) ) ;
#9 = CARTESIAN_POINT ( 'NONE',  ( -21.50000000000000000, -21.50000000000000000, 5.000000000000000000 ) ) ;
#10 = CYLINDRICAL_SURFACE ( 'NONE', #276, 3.399999999999995500 ) ;
#11 = CARTESIAN_POINT ( 'NONE',  ( -21.50000000000000000, -21.50000000000000000, 5.000000000000000000 ) ) ;
#12 = MECHANICAL_DESIGN_GEOMETRIC_PRESENTATION_REPRESENTATION (  '', ( #293 ), #27 ) ;
#13 = VERTEX_POINT ( 'NONE', #178 ) ;
#14 = DIRECTION ( 'NONE',  ( -1.000000000000000000, -0.0000000000000000000, -0.0000000000000000000 ) ) ;
#15 = VERTEX_POINT ( 'NONE', #148 ) ;
#16 = CARTESIAN_POINT ( 'NONE',  ( -21.50000000000000000, -21.50000000000000000, 0.0000000000000000000 ) ) ;
#17 = UNCERTAINTY_MEASURE_WITH_UNIT (LENGTH_MEASURE( 1.000000000000000100E-005 ), #137, 'distance_accuracy_value', 'NONE');
#18 =( NAMED_UNIT ( * ) SI_UNIT ( $, .STERADIAN. ) SOLID_ANGLE_UNIT ( ) );
#19 = CARTESIAN_POINT ( 'NONE',  ( 21.49999999999999300, -21.50000000000000000, 5.000000000000000000 ) ) ;
#20 = EDGE_CURVE ( 'NONE', #292, #46, #249, .T. ) ;
#21 = DIRECTION ( 'NONE',  ( 1.000000000000000000, 0.0000000000000000000, 0.0000000000000000000 ) ) ;
#22 = ORIENTED_EDGE ( 'NONE', *, *, #151, .F. ) ;
#23 = ADVANCED_FACE ( 'NONE', ( #272, #266 ), #130, .T. ) ;
#24 = CARTESIAN_POINT ( 'NONE',  ( -21.50000000000000000, -21.50000000000000000, 5.000000000000000000 ) ) ;
#25 = EDGE_CURVE ( 'NONE', #265, #5, #208, .T. ) ;
#26 = AXIS2_PLACEMENT_3D ( 'NONE', #250, #206, #196 ) ;
#27 =( GEOMETRIC_REPRESENTATION_CONTEXT ( 3 ) GLOBAL_UNCERTAINTY_ASSIGNED_CONTEXT ( ( #164 ) ) GLOBAL_UNIT_ASSIGNED_CONTEXT ( ( #110, #109, #116 ) ) REPRESENTATION_CONTEXT ( 'NONE', 'WORKASPACE' ) );
#28 = ORIENTED_EDGE ( 'NONE', *, *, #171, .T. ) ;
#29 = DIRECTION ( 'NONE',  ( -1.000000000000000000, -0.0000000000000000000, -0.0000000000000000000 ) ) ;
#30 = DIRECTION ( 'NONE',  ( -1.000000000000000000, 0.0000000000000000000, -0.0000000000000000000 ) ) ;
#31 = ORIENTED_EDGE ( 'NONE', *, *, #185, .T. ) ;
#32 = CARTESIAN_POINT ( 'NONE',  ( 21.49999999999999300, -21.50000000000000000, 0.0000000000000000000 ) ) ;
#33 = DIRECTION ( 'NONE',  ( 1.000000000000000000, 0.0000000000000000000, 0.0000000000000000000 ) ) ;
#34 = DIRECTION ( 'NONE',  ( 0.0000000000000000000, 0.0000000000000000000, -1.000000000000000000 ) ) ;
#35 = SURFACE_STYLE_USAGE ( .BOTH. , #56 ) ;
#36 = AXIS2_PLACEMENT_3D ( 'NONE', #103, #78, #76 ) ;
#37 = ORIENTED_EDGE ( 'NONE', *, *, #128, .T. ) ;
#38 = DIRECTION ( 'NONE',  ( 0.0000000000000000000, 1.000000000000000000, 0.0000000000000000000 ) ) ;
#39 = DIRECTION ( 'NONE',  ( 1.000000000000000000, 0.0000000000000000000, 0.0000000000000000000 ) ) ;
#40 = DIRECTION ( 'NONE',  ( 0.0000000000000000000, 1.000000000000000000, 0.0000000000000000000 ) ) ;
#41 = CARTESIAN_POINT ( 'NONE',  ( 0.0000000000000000000, 0.0000000000000000000, 5.000000000000000000 ) ) ;
#42 = SURFACE_STYLE_FILL_AREA ( #57 ) ;
#43 = CARTESIAN_POINT ( 'NONE',  ( 21.49999999999999300, -21.50000000000000000, 5.000000000000000000 ) ) ;
#44 = AXIS2_PLACEMENT_3D ( 'NONE', #153, #199, #150 ) ;
#45 =( NAMED_UNIT ( * ) PLANE_ANGLE_UNIT ( ) SI_UNIT ( $, .RADIAN. ) );
#46 = VERTEX_POINT ( 'NONE', #48 ) ;
#47 = PLANE ( 'NONE',  #290 ) ;
#48 = CARTESIAN_POINT ( 'NONE',  ( 3.399999999999995500, 0.0000000000000000000, 0.0000000000000000000 ) ) ;
#49 = ADVANCED_FACE ( 'NONE', ( #245 ), #47, .F. ) ;
#50 = FACE_OUTER_BOUND ( 'NONE', #86, .T. ) ;
#51 = VECTOR ( 'NONE', #231, 1000.000000000000000 ) ;
#52 = EDGE_CURVE ( 'NONE', #46, #113, #175, .T. ) ;
#53 =( LENGTH_UNIT ( ) NAMED_UNIT ( * ) SI_UNIT ( .MILLI., .METRE. ) );
#54 = LINE ( 'NONE', #165, #188 ) ;
#55 = SURFACE_STYLE_USAGE ( .BOTH. , #58 ) ;
#56 = SURFACE_SIDE_STYLE ('',( #147 ) ) ;
#57 = FILL_AREA_STYLE ('',( #296 ) ) ;
#58 = SURFACE_SIDE_STYLE ('',( #142 ) ) ;
#59 = EDGE_CURVE ( 'NONE', #217, #113, #194, .T. ) ;
#60 = CARTESIAN_POINT ( 'NONE',  ( -21.50000000000000000, 21.50000000000000000, 0.0000000000000000000 ) ) ;
#61 = FILL_AREA_STYLE ('',( #112 ) ) ;
#62 = MANIFOLD_SOLID_BREP ( 'M8 Gewindebohrung1', #306 ) ;
#63 = LINE ( 'NONE', #144, #237 ) ;
#64 = DIRECTION ( 'NONE',  ( -0.0000000000000000000, -0.0000000000000000000, 1.000000000000000000 ) ) ;
#65 = EDGE_LOOP ( 'NONE', ( #173, #22, #102, #269 ) ) ;
#66 = ORIENTED_EDGE ( 'NONE', *, *, #52, .T. ) ;
#67 = CARTESIAN_POINT ( 'NONE',  ( 21.49999999999999300, -21.50000000000000000, 5.000000000000000000 ) ) ;
#68 = CARTESIAN_POINT ( 'NONE',  ( -21.50000000000000000, -21.50000000000000000, 0.0000000000000000000 ) ) ;
#69 = DIRECTION ( 'NONE',  ( 1.000000000000000000, 0.0000000000000000000, 0.0000000000000000000 ) ) ;
#70 = DIRECTION ( 'NONE',  ( -1.000000000000000000, 0.0000000000000000000, -0.0000000000000000000 ) ) ;
#71 = CARTESIAN_POINT ( 'NONE',  ( 0.0000000000000000000, 0.0000000000000000000, 0.0000000000000000000 ) ) ;
#72 = AXIS2_PLACEMENT_3D ( 'NONE', #211, #169, #167 ) ;
#73 = ORIENTED_EDGE ( 'NONE', *, *, #95, .F. ) ;
#74 = ADVANCED_FACE ( 'NONE', ( #166, #240 ), #1, .F. ) ;
#75 = DIRECTION ( 'NONE',  ( 0.0000000000000000000, 0.0000000000000000000, -1.000000000000000000 ) ) ;
#76 = DIRECTION ( 'NONE',  ( -1.000000000000000000, 0.0000000000000000000, 0.0000000000000000000 ) ) ;
#77 = AXIS2_PLACEMENT_3D ( 'NONE', #280, #270, #252 ) ;
#78 = DIRECTION ( 'NONE',  ( 0.0000000000000000000, 0.0000000000000000000, -1.000000000000000000 ) ) ;
#79 = AXIS2_PLACEMENT_3D ( 'NONE', #71, #140, #6 ) ;
#80 = ORIENTED_EDGE ( 'NONE', *, *, #95, .T. ) ;
#81 = DIRECTION ( 'NONE',  ( 0.0000000000000000000, -0.0000000000000000000, 1.000000000000000000 ) ) ;
#82 = EDGE_LOOP ( 'NONE', ( #287, #268 ) ) ;
#83 = DIRECTION ( 'NONE',  ( 0.0000000000000000000, 1.000000000000000000, 0.0000000000000000000 ) ) ;
#84 =( NAMED_UNIT ( * ) SI_UNIT ( $, .STERADIAN. ) SOLID_ANGLE_UNIT ( ) );
#85 = PLANE ( 'NONE',  #191 ) ;
#86 = EDGE_LOOP ( 'NONE', ( #168, #182, #162, #127 ) ) ;
#87 =( NAMED_UNIT ( * ) PLANE_ANGLE_UNIT ( ) SI_UNIT ( $, .RADIAN. ) );
#88 = EDGE_LOOP ( 'NONE', ( #31, #210, #305, #145 ) ) ;
#89 = FILL_AREA_STYLE ('',( #143 ) ) ;
#90 = SURFACE_SIDE_STYLE ('',( #132 ) ) ;
#91 = CARTESIAN_POINT ( 'NONE',  ( -3.399999999999995500, 4.163799117100995600E-016, 0.0000000000000000000 ) ) ;
#92 = ORIENTED_EDGE ( 'NONE', *, *, #25, .T. ) ;
#93 = DIRECTION ( 'NONE',  ( -0.0000000000000000000, -0.0000000000000000000, -1.000000000000000000 ) ) ;
#94 = COLOUR_RGB ( '',1.000000000000000000, 1.000000000000000000, 1.000000000000000000 ) ;
#95 = EDGE_CURVE ( 'NONE', #15, #284, #225, .T. ) ;
#96 = CARTESIAN_POINT ( 'NONE',  ( 21.49999999999999300, -21.50000000000000000, 0.0000000000000000000 ) ) ;
#97 = AXIS2_PLACEMENT_3D ( 'NONE', #220, #215, #214 ) ;
#98 = VECTOR ( 'NONE', #38, 1000.000000000000000 ) ;
#99 = EDGE_LOOP ( 'NONE', ( #80, #299, #201, #195 ) ) ;
#100 = PRODUCT_DEFINITION ( 'UNKNOWN', '', #115, #159 ) ;
#101 = LINE ( 'NONE', #282, #51 ) ;
#102 = ORIENTED_EDGE ( 'NONE', *, *, #25, .F. ) ;
#103 = CARTESIAN_POINT ( 'NONE',  ( 0.0000000000000000000, 0.0000000000000000000, 0.0000000000000000000 ) ) ;
#104 = LINE ( 'NONE', #32, #98 ) ;
#105 = ORIENTED_EDGE ( 'NONE', *, *, #213, .T. ) ;
#106 = CARTESIAN_POINT ( 'NONE',  ( -21.50000000000000000, 21.50000000000000000, 5.000000000000000000 ) ) ;
#107 = CARTESIAN_POINT ( 'NONE',  ( -21.50000000000000000, -21.50000000000000000, 5.000000000000000000 ) ) ;
#108 = VECTOR ( 'NONE', #14, 1000.000000000000000 ) ;
#109 =( NAMED_UNIT ( * ) PLANE_ANGLE_UNIT ( ) SI_UNIT ( $, .RADIAN. ) );
#110 =( LENGTH_UNIT ( ) NAMED_UNIT ( * ) SI_UNIT ( .MILLI., .METRE. ) );
#111 = EDGE_CURVE ( 'NONE', #5, #13, #179, .T. ) ;
#112 = FILL_AREA_STYLE_COLOUR ( '', #129 ) ;
#113 = VERTEX_POINT ( 'NONE', #297 ) ;
#114 = CARTESIAN_POINT ( 'NONE',  ( -3.399999999999996800, 4.163799117100997600E-016, 5.000000000000000000 ) ) ;
#115 = PRODUCT_DEFINITION_FORMATION_WITH_SPECIFIED_SOURCE ( 'ANY', '', #285, .NOT_KNOWN. ) ;
#116 =( NAMED_UNIT ( * ) SI_UNIT ( $, .STERADIAN. ) SOLID_ANGLE_UNIT ( ) );
#117 = VECTOR ( 'NONE', #236, 1000.000000000000000 ) ;
#118 =( NAMED_UNIT ( * ) PLANE_ANGLE_UNIT ( ) SI_UNIT ( $, .RADIAN. ) );
#119 =( NAMED_UNIT ( * ) SI_UNIT ( $, .STERADIAN. ) SOLID_ANGLE_UNIT ( ) );
#120 = AXIS2_PLACEMENT_3D ( 'NONE', #157, #75, #70 ) ;
#121 = APPLICATION_PROTOCOL_DEFINITION ( 'draft international standard', 'automotive_design', 1998, #218 ) ;
#122 = LINE ( 'NONE', #68, #149 ) ;
#123 = LINE ( 'NONE', #138, #193 ) ;
#124 = CIRCLE ( 'NONE', #44, 3.399999999999996800 ) ;
#125 = ORIENTED_EDGE ( 'NONE', *, *, #171, .F. ) ;
#126 = ADVANCED_FACE ( 'NONE', ( #170 ), #176, .F. ) ;
#127 = ORIENTED_EDGE ( 'NONE', *, *, #203, .T. ) ;
#128 = EDGE_CURVE ( 'NONE', #46, #292, #239, .T. ) ;
#129 = COLOUR_RGB ( '',1.000000000000000000, 1.000000000000000000, 1.000000000000000000 ) ;
#130 = PLANE ( 'NONE',  #120 ) ;
#131 = PRODUCT_RELATED_PRODUCT_CATEGORY ( 'part', '', ( #285 ) ) ;
#132 = SURFACE_STYLE_FILL_AREA ( #89 ) ;
#133 = FACE_OUTER_BOUND ( 'NONE', #65, .T. ) ;
#134 = PRESENTATION_STYLE_ASSIGNMENT (( #35 ) ) ;
#135 = CARTESIAN_POINT ( 'NONE',  ( -21.50000000000000000, 21.50000000000000000, 5.000000000000000000 ) ) ;
#136 = ORIENTED_EDGE ( 'NONE', *, *, #52, .F. ) ;
#137 =( LENGTH_UNIT ( ) NAMED_UNIT ( * ) SI_UNIT ( .MILLI., .METRE. ) );
#138 = CARTESIAN_POINT ( 'NONE',  ( -21.50000000000000000, -21.50000000000000000, 5.000000000000000000 ) ) ;
#139 = SHAPE_DEFINITION_REPRESENTATION ( #216, #241 ) ;
#140 = DIRECTION ( 'NONE',  ( 0.0000000000000000000, 0.0000000000000000000, 1.000000000000000000 ) ) ;
#141 = DIRECTION ( 'NONE',  ( -0.0000000000000000000, -1.000000000000000000, -0.0000000000000000000 ) ) ;
#142 = SURFACE_STYLE_FILL_AREA ( #61 ) ;
#143 = FILL_AREA_STYLE_COLOUR ( '', #154 ) ;
#144 = CARTESIAN_POINT ( 'NONE',  ( -21.50000000000000000, -21.50000000000000000, 0.0000000000000000000 ) ) ;
#145 = ORIENTED_EDGE ( 'NONE', *, *, #226, .T. ) ;
#146 = ORIENTED_EDGE ( 'NONE', *, *, #59, .F. ) ;
#147 = SURFACE_STYLE_FILL_AREA ( #281 ) ;
#148 = CARTESIAN_POINT ( 'NONE',  ( 21.49999999999999300, 21.50000000000000000, 0.0000000000000000000 ) ) ;
#149 = VECTOR ( 'NONE', #69, 1000.000000000000000 ) ;
#150 = DIRECTION ( 'NONE',  ( 1.000000000000000000, 0.0000000000000000000, 0.0000000000000000000 ) ) ;
#151 = EDGE_CURVE ( 'NONE', #5, #15, #101, .T. ) ;
#152 =( GEOMETRIC_REPRESENTATION_CONTEXT ( 3 ) GLOBAL_UNCERTAINTY_ASSIGNED_CONTEXT ( ( #279 ) ) GLOBAL_UNIT_ASSIGNED_CONTEXT ( ( #257, #256, #254 ) ) REPRESENTATION_CONTEXT ( 'NONE', 'WORKASPACE' ) );
#153 = CARTESIAN_POINT ( 'NONE',  ( 0.0000000000000000000, 0.0000000000000000000, 5.000000000000000000 ) ) ;
#154 = COLOUR_RGB ( '',1.000000000000000000, 1.000000000000000000, 1.000000000000000000 ) ;
#155 = ORIENTED_EDGE ( 'NONE', *, *, #2, .T. ) ;
#156 = ADVANCED_FACE ( 'NONE', ( #224 ), #209, .F. ) ;
#157 = CARTESIAN_POINT ( 'NONE',  ( -21.50000000000000000, 21.50000000000000000, 0.0000000000000000000 ) ) ;
#158 = ORIENTED_EDGE ( 'NONE', *, *, #2, .F. ) ;
#159 = PRODUCT_DEFINITION_CONTEXT ( 'detailed design', #273, 'design' ) ;
#160 = MECHANICAL_DESIGN_GEOMETRIC_PRESENTATION_REPRESENTATION (  '', ( #200 ), #152 ) ;
#161 = ORIENTED_EDGE ( 'NONE', *, *, #59, .T. ) ;
#162 = ORIENTED_EDGE ( 'NONE', *, *, #295, .F. ) ;
#163 = DIRECTION ( 'NONE',  ( -0.0000000000000000000, -0.0000000000000000000, -1.000000000000000000 ) ) ;
#164 = UNCERTAINTY_MEASURE_WITH_UNIT (LENGTH_MEASURE( 1.000000000000000100E-005 ), #110, 'distance_accuracy_value', 'NONE');
#165 = CARTESIAN_POINT ( 'NONE',  ( -21.50000000000000000, -21.50000000000000000, 5.000000000000000000 ) ) ;
#166 = FACE_BOUND ( 'NONE', #288, .T. ) ;
#167 = DIRECTION ( 'NONE',  ( 0.0000000000000000000, 0.0000000000000000000, 1.000000000000000000 ) ) ;
#168 = ORIENTED_EDGE ( 'NONE', *, *, #258, .T. ) ;
#169 = DIRECTION ( 'NONE',  ( -1.000000000000000000, 0.0000000000000000000, 0.0000000000000000000 ) ) ;
#170 = FACE_OUTER_BOUND ( 'NONE', #289, .T. ) ;
#171 = EDGE_CURVE ( 'NONE', #292, #217, #294, .T. ) ;
#172 = VECTOR ( 'NONE', #8, 1000.000000000000000 ) ;
#173 = ORIENTED_EDGE ( 'NONE', *, *, #301, .T. ) ;
#174 = PLANE ( 'NONE',  #72 ) ;
#175 = LINE ( 'NONE', #277, #184 ) ;
#176 = CYLINDRICAL_SURFACE ( 'NONE', #77, 3.399999999999995500 ) ;
#177 = ORIENTED_EDGE ( 'NONE', *, *, #258, .F. ) ;
#178 = CARTESIAN_POINT ( 'NONE',  ( -21.50000000000000000, 21.50000000000000000, 5.000000000000000000 ) ) ;
#179 = LINE ( 'NONE', #298, #108 ) ;
#180 = CARTESIAN_POINT ( 'NONE',  ( -3.399999999999995500, 4.163799117100995600E-016, 5.000000000000000000 ) ) ;
#181 = STYLED_ITEM ( 'NONE', ( #262 ), #267 ) ;
#182 = ORIENTED_EDGE ( 'NONE', *, *, #286, .F. ) ;
#183 = ADVANCED_FACE ( 'NONE', ( #133 ), #174, .F. ) ;
#184 = VECTOR ( 'NONE', #198, 1000.000000000000000 ) ;
#185 = EDGE_CURVE ( 'NONE', #284, #274, #63, .T. ) ;
#186 = PRESENTATION_LAYER_ASSIGNMENT (  '', '', ( #200 ) ) ;
#187 = ORIENTED_EDGE ( 'NONE', *, *, #111, .T. ) ;
#188 = VECTOR ( 'NONE', #190, 1000.000000000000000 ) ;
#189 = AXIS2_PLACEMENT_3D ( 'NONE', #106, #34, #30 ) ;
#190 = DIRECTION ( 'NONE',  ( -0.0000000000000000000, -1.000000000000000000, -0.0000000000000000000 ) ) ;
#191 = AXIS2_PLACEMENT_3D ( 'NONE', #107, #83, #81 ) ;
#192 =( LENGTH_UNIT ( ) NAMED_UNIT ( * ) SI_UNIT ( .MILLI., .METRE. ) );
#193 = VECTOR ( 'NONE', #163, 1000.000000000000000 ) ;
#194 = CIRCLE ( 'NONE', #303, 3.399999999999996800 ) ;
#195 = ORIENTED_EDGE ( 'NONE', *, *, #151, .T. ) ;
#196 = DIRECTION ( 'NONE',  ( 0.0000000000000000000, -0.0000000000000000000, -1.000000000000000000 ) ) ;
#197 = EDGE_LOOP ( 'NONE', ( #37, #28, #161, #136 ) ) ;
#198 = DIRECTION ( 'NONE',  ( -0.0000000000000000000, -0.0000000000000000000, 1.000000000000000000 ) ) ;
#199 = DIRECTION ( 'NONE',  ( -0.0000000000000000000, -0.0000000000000000000, 1.000000000000000000 ) ) ;
#200 = STYLED_ITEM ( 'NONE', ( #221 ), #126 ) ;
#201 = ORIENTED_EDGE ( 'NONE', *, *, #111, .F. ) ;
#202 = UNCERTAINTY_MEASURE_WITH_UNIT (LENGTH_MEASURE( 1.000000000000000100E-005 ), #53, 'distance_accuracy_value', 'NONE');
#203 = EDGE_CURVE ( 'NONE', #278, #274, #123, .T. ) ;
#204 = PRESENTATION_LAYER_ASSIGNMENT (  '', '', ( #181 ) ) ;
#205 = EDGE_LOOP ( 'NONE', ( #251, #73, #247, #177 ) ) ;
#206 = DIRECTION ( 'NONE',  ( 0.0000000000000000000, -1.000000000000000000, 0.0000000000000000000 ) ) ;
#207 = DIRECTION ( 'NONE',  ( 1.000000000000000000, 0.0000000000000000000, 0.0000000000000000000 ) ) ;
#208 = LINE ( 'NONE', #43, #219 ) ;
#209 = PLANE ( 'NONE',  #26 ) ;
#210 = ORIENTED_EDGE ( 'NONE', *, *, #203, .F. ) ;
#211 = CARTESIAN_POINT ( 'NONE',  ( 21.49999999999999300, -21.50000000000000000, 5.000000000000000000 ) ) ;
#212 = FACE_OUTER_BOUND ( 'NONE', #197, .T. ) ;
#213 = EDGE_CURVE ( 'NONE', #13, #278, #54, .T. ) ;
#214 = DIRECTION ( 'NONE',  ( -1.000000000000000000, 0.0000000000000000000, 0.0000000000000000000 ) ) ;
#215 = DIRECTION ( 'NONE',  ( 0.0000000000000000000, 0.0000000000000000000, -1.000000000000000000 ) ) ;
#216 = PRODUCT_DEFINITION_SHAPE ( 'NONE', 'NONE',  #100 ) ;
#217 = VERTEX_POINT ( 'NONE', #114 ) ;
#218 = APPLICATION_CONTEXT ( 'automotive_design' ) ;
#219 = VECTOR ( 'NONE', #40, 1000.000000000000000 ) ;
#220 = CARTESIAN_POINT ( 'NONE',  ( 0.0000000000000000000, 0.0000000000000000000, 0.0000000000000000000 ) ) ;
#221 = PRESENTATION_STYLE_ASSIGNMENT (( #259 ) ) ;
#222 = MECHANICAL_DESIGN_GEOMETRIC_PRESENTATION_REPRESENTATION (  '', ( #181 ), #232 ) ;
#223 = ORIENTED_EDGE ( 'NONE', *, *, #20, .T. ) ;
#224 = FACE_OUTER_BOUND ( 'NONE', #99, .T. ) ;
#225 = LINE ( 'NONE', #302, #230 ) ;
#226 = EDGE_CURVE ( 'NONE', #13, #284, #244, .T. ) ;
#227 =( GEOMETRIC_REPRESENTATION_CONTEXT ( 3 ) GLOBAL_UNCERTAINTY_ASSIGNED_CONTEXT ( ( #255 ) ) GLOBAL_UNIT_ASSIGNED_CONTEXT ( ( #192, #87, #119 ) ) REPRESENTATION_CONTEXT ( 'NONE', 'WORKASPACE' ) );
#228 = ORIENTED_EDGE ( 'NONE', *, *, #295, .T. ) ;
#229 = CARTESIAN_POINT ( 'NONE',  ( 0.0000000000000000000, 0.0000000000000000000, 5.000000000000000000 ) ) ;
#230 = VECTOR ( 'NONE', #29, 1000.000000000000000 ) ;
#231 = DIRECTION ( 'NONE',  ( -0.0000000000000000000, -0.0000000000000000000, -1.000000000000000000 ) ) ;
#232 =( GEOMETRIC_REPRESENTATION_CONTEXT ( 3 ) GLOBAL_UNCERTAINTY_ASSIGNED_CONTEXT ( ( #202 ) ) GLOBAL_UNIT_ASSIGNED_CONTEXT ( ( #53, #45, #84 ) ) REPRESENTATION_CONTEXT ( 'NONE', 'WORKASPACE' ) );
#233 = LINE ( 'NONE', #9, #291 ) ;
#234 = VERTEX_POINT ( 'NONE', #96 ) ;
#235 = SURFACE_STYLE_USAGE ( .BOTH. , #90 ) ;
#236 = DIRECTION ( 'NONE',  ( -0.0000000000000000000, -0.0000000000000000000, 1.000000000000000000 ) ) ;
#237 = VECTOR ( 'NONE', #141, 1000.000000000000000 ) ;
#238 = DIRECTION ( 'NONE',  ( -0.0000000000000000000, -0.0000000000000000000, 1.000000000000000000 ) ) ;
#239 = CIRCLE ( 'NONE', #97, 3.399999999999995500 ) ;
#240 = FACE_OUTER_BOUND ( 'NONE', #7, .T. ) ;
#241 = ADVANCED_BREP_SHAPE_REPRESENTATION ( '096p0434305m8', ( #62, #79 ), #263 ) ;
#242 = MECHANICAL_DESIGN_GEOMETRIC_PRESENTATION_REPRESENTATION (  '', ( #260 ), #227 ) ;
#243 = CARTESIAN_POINT ( 'NONE',  ( 21.49999999999999300, 21.50000000000000000, 5.000000000000000000 ) ) ;
#244 = LINE ( 'NONE', #135, #253 ) ;
#245 = FACE_OUTER_BOUND ( 'NONE', #88, .T. ) ;
#246 = ADVANCED_FACE ( 'NONE', ( #50 ), #85, .F. ) ;
#247 = ORIENTED_EDGE ( 'NONE', *, *, #301, .F. ) ;
#248 = PRESENTATION_LAYER_ASSIGNMENT (  '', '', ( #260 ) ) ;
#249 = CIRCLE ( 'NONE', #36, 3.399999999999995500 ) ;
#250 = CARTESIAN_POINT ( 'NONE',  ( -21.50000000000000000, 21.50000000000000000, 5.000000000000000000 ) ) ;
#251 = ORIENTED_EDGE ( 'NONE', *, *, #185, .F. ) ;
#252 = DIRECTION ( 'NONE',  ( 1.000000000000000000, 0.0000000000000000000, 0.0000000000000000000 ) ) ;
#253 = VECTOR ( 'NONE', #93, 1000.000000000000000 ) ;
#254 =( NAMED_UNIT ( * ) SI_UNIT ( $, .STERADIAN. ) SOLID_ANGLE_UNIT ( ) );
#255 = UNCERTAINTY_MEASURE_WITH_UNIT (LENGTH_MEASURE( 1.000000000000000100E-005 ), #192, 'distance_accuracy_value', 'NONE');
#256 =( NAMED_UNIT ( * ) PLANE_ANGLE_UNIT ( ) SI_UNIT ( $, .RADIAN. ) );
#257 =( LENGTH_UNIT ( ) NAMED_UNIT ( * ) SI_UNIT ( .MILLI., .METRE. ) );
#258 = EDGE_CURVE ( 'NONE', #274, #234, #122, .T. ) ;
#259 = SURFACE_STYLE_USAGE ( .BOTH. , #261 ) ;
#260 = STYLED_ITEM ( 'NONE', ( #134 ), #62 ) ;
#261 = SURFACE_SIDE_STYLE ('',( #42 ) ) ;
#262 = PRESENTATION_STYLE_ASSIGNMENT (( #55 ) ) ;
#263 =( GEOMETRIC_REPRESENTATION_CONTEXT ( 3 ) GLOBAL_UNCERTAINTY_ASSIGNED_CONTEXT ( ( #17 ) ) GLOBAL_UNIT_ASSIGNED_CONTEXT ( ( #137, #118, #18 ) ) REPRESENTATION_CONTEXT ( 'NONE', 'WORKASPACE' ) );
#264 = PRESENTATION_STYLE_ASSIGNMENT (( #235 ) ) ;
#265 = VERTEX_POINT ( 'NONE', #67 ) ;
#266 = FACE_OUTER_BOUND ( 'NONE', #205, .T. ) ;
#267 = ADVANCED_FACE ( 'NONE', ( #212 ), #10, .F. ) ;
#268 = ORIENTED_EDGE ( 'NONE', *, *, #20, .F. ) ;
#269 = ORIENTED_EDGE ( 'NONE', *, *, #286, .T. ) ;
#270 = DIRECTION ( 'NONE',  ( -0.0000000000000000000, -0.0000000000000000000, 1.000000000000000000 ) ) ;
#271 = PRODUCT_CONTEXT ( 'NONE', #218, 'mechanical' ) ;
#272 = FACE_BOUND ( 'NONE', #82, .T. ) ;
#273 = APPLICATION_CONTEXT ( 'automotive_design' ) ;
#274 = VERTEX_POINT ( 'NONE', #16 ) ;
#275 = APPLICATION_PROTOCOL_DEFINITION ( 'draft international standard', 'automotive_design', 1998, #273 ) ;
#276 = AXIS2_PLACEMENT_3D ( 'NONE', #41, #64, #39 ) ;
#277 = CARTESIAN_POINT ( 'NONE',  ( 3.399999999999995500, 0.0000000000000000000, 5.000000000000000000 ) ) ;
#278 = VERTEX_POINT ( 'NONE', #11 ) ;
#279 = UNCERTAINTY_MEASURE_WITH_UNIT (LENGTH_MEASURE( 1.000000000000000100E-005 ), #257, 'distance_accuracy_value', 'NONE');
#280 = CARTESIAN_POINT ( 'NONE',  ( 0.0000000000000000000, 0.0000000000000000000, 5.000000000000000000 ) ) ;
#281 = FILL_AREA_STYLE ('',( #300 ) ) ;
#282 = CARTESIAN_POINT ( 'NONE',  ( 21.49999999999999300, 21.50000000000000000, 5.000000000000000000 ) ) ;
#283 = COLOUR_RGB ( '',1.000000000000000000, 1.000000000000000000, 1.000000000000000000 ) ;
#284 = VERTEX_POINT ( 'NONE', #60 ) ;
#285 = PRODUCT ( '096p0434305m8', '096p0434305m8', '', ( #271 ) ) ;
#286 = EDGE_CURVE ( 'NONE', #265, #234, #4, .T. ) ;
#287 = ORIENTED_EDGE ( 'NONE', *, *, #128, .F. ) ;
#288 = EDGE_LOOP ( 'NONE', ( #158, #146 ) ) ;
#289 = EDGE_LOOP ( 'NONE', ( #125, #223, #66, #155 ) ) ;
#290 = AXIS2_PLACEMENT_3D ( 'NONE', #24, #21, #3 ) ;
#291 = VECTOR ( 'NONE', #33, 1000.000000000000000 ) ;
#292 = VERTEX_POINT ( 'NONE', #91 ) ;
#293 = STYLED_ITEM ( 'NONE', ( #264 ), #241 ) ;
#294 = LINE ( 'NONE', #180, #117 ) ;
#295 = EDGE_CURVE ( 'NONE', #278, #265, #233, .T. ) ;
#296 = FILL_AREA_STYLE_COLOUR ( '', #94 ) ;
#297 = CARTESIAN_POINT ( 'NONE',  ( 3.399999999999996800, 0.0000000000000000000, 5.000000000000000000 ) ) ;
#298 = CARTESIAN_POINT ( 'NONE',  ( -21.50000000000000000, 21.50000000000000000, 5.000000000000000000 ) ) ;
#299 = ORIENTED_EDGE ( 'NONE', *, *, #226, .F. ) ;
#300 = FILL_AREA_STYLE_COLOUR ( '', #283 ) ;
#301 = EDGE_CURVE ( 'NONE', #234, #15, #104, .T. ) ;
#302 = CARTESIAN_POINT ( 'NONE',  ( -21.50000000000000000, 21.50000000000000000, 0.0000000000000000000 ) ) ;
#303 = AXIS2_PLACEMENT_3D ( 'NONE', #229, #238, #207 ) ;
#304 = PRESENTATION_LAYER_ASSIGNMENT (  '', '', ( #293 ) ) ;
#305 = ORIENTED_EDGE ( 'NONE', *, *, #213, .F. ) ;
#306 = CLOSED_SHELL ( 'NONE', ( #267, #49, #246, #183, #156, #74, #23, #126 ) ) ;
ENDSEC;
END-ISO-10303-21;
