ISO-10303-21;
HEADER;
FILE_DESCRIPTION (( 'STEP AP214' ),
    '1' );
FILE_NAME ('096p0353005m6.STEP',
    '2014-08-18T13:00:29',
    ( '' ),
    ( '' ),
    'SwSTEP 2.0',
    'SolidWorks 2014',
    '' );
FILE_SCHEMA (( 'AUTOMOTIVE_DESIGN' ));
ENDSEC;

DATA;
#1 = DIRECTION ( 'NONE',  ( -0.0000000000000000000, -1.000000000000000000, -0.0000000000000000000 ) ) ;
#2 = EDGE_CURVE ( 'NONE', #195, #57, #216, .T. ) ;
#3 = CARTESIAN_POINT ( 'NONE',  ( 0.0000000000000000000, 0.0000000000000000000, 0.0000000000000000000 ) ) ;
#4 = COLOUR_RGB ( '',0.4823529411764706000, 0.4901960784313725300, 0.4941176470588235500 ) ;
#5 = DIRECTION ( 'NONE',  ( 1.000000000000000000, 0.0000000000000000000, 0.0000000000000000000 ) ) ;
#6 = ORIENTED_EDGE ( 'NONE', *, *, #184, .F. ) ;
#7 = CARTESIAN_POINT ( 'NONE',  ( 0.0000000000000000000, 0.0000000000000000000, 5.000000000000000000 ) ) ;
#8 = CARTESIAN_POINT ( 'NONE',  ( 30.00000000000000000, 3.673819061467131800E-015, 5.000000000000000000 ) ) ;
#9 = DIRECTION ( 'NONE',  ( 0.0000000000000000000, 1.000000000000000000, 0.0000000000000000000 ) ) ;
#10 = DIRECTION ( 'NONE',  ( 0.0000000000000000000, 0.0000000000000000000, -1.000000000000000000 ) ) ;
#11 = VECTOR ( 'NONE', #218, 1000.000000000000000 ) ;
#12 = DIRECTION ( 'NONE',  ( 1.000000000000000000, 0.0000000000000000000, 0.0000000000000000000 ) ) ;
#13 = VERTEX_POINT ( 'NONE', #165 ) ;
#14 = PLANE ( 'NONE',  #267 ) ;
#15 = ORIENTED_EDGE ( 'NONE', *, *, #82, .T. ) ;
#16 = DIRECTION ( 'NONE',  ( 0.0000000000000000000, 0.0000000000000000000, 1.000000000000000000 ) ) ;
#17 = EDGE_CURVE ( 'NONE', #252, #13, #169, .T. ) ;
#18 = DIRECTION ( 'NONE',  ( 0.0000000000000000000, 0.0000000000000000000, 1.000000000000000000 ) ) ;
#19 = AXIS2_PLACEMENT_3D ( 'NONE', #94, #60, #47 ) ;
#20 = ADVANCED_FACE ( 'NONE', ( #119 ), #139, .F. ) ;
#21 = ORIENTED_EDGE ( 'NONE', *, *, #31, .F. ) ;
#22 = FACE_BOUND ( 'NONE', #70, .T. ) ;
#23 = CARTESIAN_POINT ( 'NONE',  ( 14.99999999999999600, 17.50000000000000000, 0.0000000000000000000 ) ) ;
#24 = CARTESIAN_POINT ( 'NONE',  ( 0.0000000000000000000, 0.0000000000000000000, 0.0000000000000000000 ) ) ;
#25 = ORIENTED_EDGE ( 'NONE', *, *, #2, .F. ) ;
#26 = ADVANCED_FACE ( 'NONE', ( #98, #22 ), #123, .F. ) ;
#27 = LINE ( 'NONE', #187, #164 ) ;
#28 = UNCERTAINTY_MEASURE_WITH_UNIT (LENGTH_MEASURE( 1.000000000000000100E-005 ), #89, 'distance_accuracy_value', 'NONE');
#29 = CYLINDRICAL_SURFACE ( 'NONE', #273, 2.499999999999998700 ) ;
#30 = FACE_OUTER_BOUND ( 'NONE', #181, .T. ) ;
#31 = EDGE_CURVE ( 'NONE', #13, #71, #127, .T. ) ;
#32 = ORIENTED_EDGE ( 'NONE', *, *, #63, .T. ) ;
#33 = ORIENTED_EDGE ( 'NONE', *, *, #184, .T. ) ;
#34 = VERTEX_POINT ( 'NONE', #77 ) ;
#35 = LINE ( 'NONE', #253, #11 ) ;
#36 = FACE_OUTER_BOUND ( 'NONE', #211, .T. ) ;
#37 = AXIS2_PLACEMENT_3D ( 'NONE', #128, #147, #109 ) ;
#38 = ORIENTED_EDGE ( 'NONE', *, *, #17, .F. ) ;
#39 = APPLICATION_PROTOCOL_DEFINITION ( 'draft international standard', 'automotive_design', 1998, #40 ) ;
#40 = APPLICATION_CONTEXT ( 'automotive_design' ) ;
#41 = ADVANCED_BREP_SHAPE_REPRESENTATION ( '096p0353005m6', ( #166, #185 ), #50 ) ;
#42 = CARTESIAN_POINT ( 'NONE',  ( 0.0000000000000000000, 0.0000000000000000000, 5.000000000000000000 ) ) ;
#43 = ORIENTED_EDGE ( 'NONE', *, *, #82, .F. ) ;
#44 = CARTESIAN_POINT ( 'NONE',  ( 30.00000000000000000, 35.00000000000000000, 0.0000000000000000000 ) ) ;
#45 = PRODUCT_CONTEXT ( 'NONE', #75, 'mechanical' ) ;
#46 = LINE ( 'NONE', #199, #83 ) ;
#47 = DIRECTION ( 'NONE',  ( -1.000000000000000000, 0.0000000000000000000, 0.0000000000000000000 ) ) ;
#48 = VECTOR ( 'NONE', #9, 1000.000000000000000 ) ;
#49 = CARTESIAN_POINT ( 'NONE',  ( 30.00000000000000000, 35.00000000000000000, 5.000000000000000000 ) ) ;
#50 =( GEOMETRIC_REPRESENTATION_CONTEXT ( 3 ) GLOBAL_UNCERTAINTY_ASSIGNED_CONTEXT ( ( #28 ) ) GLOBAL_UNIT_ASSIGNED_CONTEXT ( ( #89, #88, #87 ) ) REPRESENTATION_CONTEXT ( 'NONE', 'WORKASPACE' ) );
#51 = DIRECTION ( 'NONE',  ( 1.000000000000000000, 0.0000000000000000000, 0.0000000000000000000 ) ) ;
#52 = CARTESIAN_POINT ( 'NONE',  ( 14.99999999999999600, 17.50000000000000000, 5.000000000000000000 ) ) ;
#53 = VECTOR ( 'NONE', #143, 1000.000000000000000 ) ;
#54 = CARTESIAN_POINT ( 'NONE',  ( 17.49999999999999600, 17.50000000000000000, 5.000000000000000000 ) ) ;
#55 = DIRECTION ( 'NONE',  ( -0.0000000000000000000, -0.0000000000000000000, -1.000000000000000000 ) ) ;
#56 = VERTEX_POINT ( 'NONE', #102 ) ;
#57 = VERTEX_POINT ( 'NONE', #104 ) ;
#58 = VECTOR ( 'NONE', #149, 1000.000000000000000 ) ;
#59 = AXIS2_PLACEMENT_3D ( 'NONE', #268, #265, #175 ) ;
#60 = DIRECTION ( 'NONE',  ( -0.0000000000000000000, -0.0000000000000000000, -1.000000000000000000 ) ) ;
#61 = EDGE_LOOP ( 'NONE', ( #15, #157, #79, #113 ) ) ;
#62 = DIRECTION ( 'NONE',  ( 0.0000000000000000000, 0.0000000000000000000, 1.000000000000000000 ) ) ;
#63 = EDGE_CURVE ( 'NONE', #103, #71, #264, .T. ) ;
#64 =( NAMED_UNIT ( * ) PLANE_ANGLE_UNIT ( ) SI_UNIT ( $, .RADIAN. ) );
#65 = AXIS2_PLACEMENT_3D ( 'NONE', #190, #132, #130 ) ;
#66 = EDGE_CURVE ( 'NONE', #56, #251, #144, .T. ) ;
#67 =( NAMED_UNIT ( * ) SI_UNIT ( $, .STERADIAN. ) SOLID_ANGLE_UNIT ( ) );
#68 =( LENGTH_UNIT ( ) NAMED_UNIT ( * ) SI_UNIT ( .MILLI., .METRE. ) );
#69 = SURFACE_STYLE_USAGE ( .BOTH. , #72 ) ;
#70 = EDGE_LOOP ( 'NONE', ( #6, #204 ) ) ;
#71 = VERTEX_POINT ( 'NONE', #44 ) ;
#72 = SURFACE_SIDE_STYLE ('',( #236 ) ) ;
#73 = LINE ( 'NONE', #54, #191 ) ;
#74 = FILL_AREA_STYLE ('',( #93 ) ) ;
#75 = APPLICATION_CONTEXT ( 'automotive_design' ) ;
#76 = CARTESIAN_POINT ( 'NONE',  ( 0.0000000000000000000, 0.0000000000000000000, 0.0000000000000000000 ) ) ;
#77 = CARTESIAN_POINT ( 'NONE',  ( 0.0000000000000000000, 0.0000000000000000000, 5.000000000000000000 ) ) ;
#78 = ORIENTED_EDGE ( 'NONE', *, *, #245, .F. ) ;
#79 = ORIENTED_EDGE ( 'NONE', *, *, #221, .F. ) ;
#80 = DIRECTION ( 'NONE',  ( 0.0000000000000000000, 1.000000000000000000, 0.0000000000000000000 ) ) ;
#81 = CARTESIAN_POINT ( 'NONE',  ( 30.00000000000000000, 3.673819061467131800E-015, 0.0000000000000000000 ) ) ;
#82 = EDGE_CURVE ( 'NONE', #57, #91, #174, .T. ) ;
#83 = VECTOR ( 'NONE', #258, 1000.000000000000000 ) ;
#84 = CARTESIAN_POINT ( 'NONE',  ( 0.0000000000000000000, 35.00000000000000000, 5.000000000000000000 ) ) ;
#85 = ORIENTED_EDGE ( 'NONE', *, *, #66, .T. ) ;
#86 = APPLICATION_PROTOCOL_DEFINITION ( 'draft international standard', 'automotive_design', 1998, #75 ) ;
#87 =( NAMED_UNIT ( * ) SI_UNIT ( $, .STERADIAN. ) SOLID_ANGLE_UNIT ( ) );
#88 =( NAMED_UNIT ( * ) PLANE_ANGLE_UNIT ( ) SI_UNIT ( $, .RADIAN. ) );
#89 =( LENGTH_UNIT ( ) NAMED_UNIT ( * ) SI_UNIT ( .MILLI., .METRE. ) );
#90 = CIRCLE ( 'NONE', #153, 2.499999999999998700 ) ;
#91 = VERTEX_POINT ( 'NONE', #24 ) ;
#92 = VECTOR ( 'NONE', #55, 1000.000000000000000 ) ;
#93 = FILL_AREA_STYLE_COLOUR ( '', #4 ) ;
#94 = CARTESIAN_POINT ( 'NONE',  ( 14.99999999999999600, 17.50000000000000000, 5.000000000000000000 ) ) ;
#95 = FACE_BOUND ( 'NONE', #275, .T. ) ;
#96 = PLANE ( 'NONE',  #261 ) ;
#97 = EDGE_CURVE ( 'NONE', #138, #56, #73, .T. ) ;
#98 = FACE_OUTER_BOUND ( 'NONE', #173, .T. ) ;
#99 = UNCERTAINTY_MEASURE_WITH_UNIT (LENGTH_MEASURE( 1.000000000000000100E-005 ), #68, 'distance_accuracy_value', 'NONE');
#100 = ORIENTED_EDGE ( 'NONE', *, *, #226, .T. ) ;
#101 = ORIENTED_EDGE ( 'NONE', *, *, #97, .F. ) ;
#102 = CARTESIAN_POINT ( 'NONE',  ( 17.49999999999999600, 17.50000000000000000, 0.0000000000000000000 ) ) ;
#103 = VERTEX_POINT ( 'NONE', #49 ) ;
#104 = CARTESIAN_POINT ( 'NONE',  ( 0.0000000000000000000, 35.00000000000000000, 0.0000000000000000000 ) ) ;
#105 = ORIENTED_EDGE ( 'NONE', *, *, #274, .T. ) ;
#106 = CARTESIAN_POINT ( 'NONE',  ( 0.0000000000000000000, 0.0000000000000000000, 5.000000000000000000 ) ) ;
#107 = CARTESIAN_POINT ( 'NONE',  ( 30.00000000000000000, 3.673819061467131800E-015, 5.000000000000000000 ) ) ;
#108 = LINE ( 'NONE', #7, #200 ) ;
#109 = DIRECTION ( 'NONE',  ( 0.0000000000000000000, -0.0000000000000000000, -1.000000000000000000 ) ) ;
#110 = DIRECTION ( 'NONE',  ( -0.0000000000000000000, -1.000000000000000000, -0.0000000000000000000 ) ) ;
#111 = ORIENTED_EDGE ( 'NONE', *, *, #171, .T. ) ;
#112 = PLANE ( 'NONE',  #37 ) ;
#113 = ORIENTED_EDGE ( 'NONE', *, *, #2, .T. ) ;
#114 = LINE ( 'NONE', #156, #58 ) ;
#115 = STYLED_ITEM ( 'NONE', ( #131 ), #41 ) ;
#116 = ADVANCED_FACE ( 'NONE', ( #259 ), #29, .F. ) ;
#117 = DIRECTION ( 'NONE',  ( -1.000000000000000000, 0.0000000000000000000, -0.0000000000000000000 ) ) ;
#118 = ORIENTED_EDGE ( 'NONE', *, *, #168, .T. ) ;
#119 = FACE_OUTER_BOUND ( 'NONE', #224, .T. ) ;
#120 = ADVANCED_FACE ( 'NONE', ( #238 ), #96, .F. ) ;
#121 = AXIS2_PLACEMENT_3D ( 'NONE', #172, #155, #150 ) ;
#122 = CARTESIAN_POINT ( 'NONE',  ( 30.00000000000000000, 35.00000000000000000, 5.000000000000000000 ) ) ;
#123 = PLANE ( 'NONE',  #193 ) ;
#124 = ORIENTED_EDGE ( 'NONE', *, *, #221, .T. ) ;
#125 = ORIENTED_EDGE ( 'NONE', *, *, #263, .F. ) ;
#126 = DIRECTION ( 'NONE',  ( -1.000000000000000000, 0.0000000000000000000, 0.0000000000000000000 ) ) ;
#127 = LINE ( 'NONE', #81, #133 ) ;
#128 = CARTESIAN_POINT ( 'NONE',  ( 0.0000000000000000000, 35.00000000000000000, 5.000000000000000000 ) ) ;
#129 = EDGE_CURVE ( 'NONE', #251, #56, #160, .T. ) ;
#130 = DIRECTION ( 'NONE',  ( -1.000000000000000000, 0.0000000000000000000, -0.0000000000000000000 ) ) ;
#131 = PRESENTATION_STYLE_ASSIGNMENT (( #69 ) ) ;
#132 = DIRECTION ( 'NONE',  ( 0.0000000000000000000, 0.0000000000000000000, -1.000000000000000000 ) ) ;
#133 = VECTOR ( 'NONE', #80, 1000.000000000000000 ) ;
#134 = ORIENTED_EDGE ( 'NONE', *, *, #179, .T. ) ;
#135 = DIRECTION ( 'NONE',  ( -1.000000000000000000, -1.224606353822377300E-016, 0.0000000000000000000 ) ) ;
#136 = DIRECTION ( 'NONE',  ( -1.224606353822377300E-016, 1.000000000000000000, 0.0000000000000000000 ) ) ;
#137 = AXIS2_PLACEMENT_3D ( 'NONE', #182, #136, #135 ) ;
#138 = VERTEX_POINT ( 'NONE', #241 ) ;
#139 = PLANE ( 'NONE',  #137 ) ;
#140 = VECTOR ( 'NONE', #223, 1000.000000000000000 ) ;
#141 = DIRECTION ( 'NONE',  ( 0.0000000000000000000, 0.0000000000000000000, -1.000000000000000000 ) ) ;
#142 = EDGE_CURVE ( 'NONE', #71, #57, #228, .T. ) ;
#143 = DIRECTION ( 'NONE',  ( -0.0000000000000000000, -0.0000000000000000000, -1.000000000000000000 ) ) ;
#144 = CIRCLE ( 'NONE', #209, 2.499999999999998700 ) ;
#145 = DIRECTION ( 'NONE',  ( -1.000000000000000000, -0.0000000000000000000, -0.0000000000000000000 ) ) ;
#146 = PLANE ( 'NONE',  #65 ) ;
#147 = DIRECTION ( 'NONE',  ( 0.0000000000000000000, -1.000000000000000000, 0.0000000000000000000 ) ) ;
#148 = ORIENTED_EDGE ( 'NONE', *, *, #97, .T. ) ;
#149 = DIRECTION ( 'NONE',  ( -0.0000000000000000000, -0.0000000000000000000, -1.000000000000000000 ) ) ;
#150 = DIRECTION ( 'NONE',  ( 1.000000000000000000, 0.0000000000000000000, 0.0000000000000000000 ) ) ;
#151 = CYLINDRICAL_SURFACE ( 'NONE', #19, 2.499999999999998700 ) ;
#152 = CARTESIAN_POINT ( 'NONE',  ( 12.49999999999999600, 17.50000000000000000, 0.0000000000000000000 ) ) ;
#153 = AXIS2_PLACEMENT_3D ( 'NONE', #196, #194, #192 ) ;
#154 = VECTOR ( 'NONE', #1, 1000.000000000000000 ) ;
#155 = DIRECTION ( 'NONE',  ( 0.0000000000000000000, 0.0000000000000000000, 1.000000000000000000 ) ) ;
#156 = CARTESIAN_POINT ( 'NONE',  ( 12.49999999999999600, 17.50000000000000000, 5.000000000000000000 ) ) ;
#157 = ORIENTED_EDGE ( 'NONE', *, *, #226, .F. ) ;
#158 = ORIENTED_EDGE ( 'NONE', *, *, #245, .T. ) ;
#159 = CARTESIAN_POINT ( 'NONE',  ( 30.00000000000000000, 3.673819061467131800E-015, 5.000000000000000000 ) ) ;
#160 = CIRCLE ( 'NONE', #59, 2.499999999999998700 ) ;
#161 = CIRCLE ( 'NONE', #121, 2.499999999999998700 ) ;
#162 = DIRECTION ( 'NONE',  ( -0.0000000000000000000, -0.0000000000000000000, -1.000000000000000000 ) ) ;
#163 = EDGE_LOOP ( 'NONE', ( #101, #111, #276, #249 ) ) ;
#164 = VECTOR ( 'NONE', #145, 1000.000000000000000 ) ;
#165 = CARTESIAN_POINT ( 'NONE',  ( 30.00000000000000000, 3.673819061467131800E-015, 0.0000000000000000000 ) ) ;
#166 = MANIFOLD_SOLID_BREP ( 'Basis-Linear austragen', #229 ) ;
#167 =( GEOMETRIC_REPRESENTATION_CONTEXT ( 3 ) GLOBAL_UNCERTAINTY_ASSIGNED_CONTEXT ( ( #272 ) ) GLOBAL_UNIT_ASSIGNED_CONTEXT ( ( #237, #235, #234 ) ) REPRESENTATION_CONTEXT ( 'NONE', 'WORKASPACE' ) );
#168 = EDGE_CURVE ( 'NONE', #91, #13, #35, .T. ) ;
#169 = LINE ( 'NONE', #159, #53 ) ;
#170 = EDGE_LOOP ( 'NONE', ( #232, #198, #78, #247 ) ) ;
#171 = EDGE_CURVE ( 'NONE', #138, #188, #90, .T. ) ;
#172 = CARTESIAN_POINT ( 'NONE',  ( 14.99999999999999600, 17.50000000000000000, 5.000000000000000000 ) ) ;
#173 = EDGE_LOOP ( 'NONE', ( #124, #134, #158, #105 ) ) ;
#174 = LINE ( 'NONE', #3, #154 ) ;
#175 = DIRECTION ( 'NONE',  ( 1.000000000000000000, 0.0000000000000000000, 0.0000000000000000000 ) ) ;
#176 = CARTESIAN_POINT ( 'NONE',  ( 0.0000000000000000000, 35.00000000000000000, 5.000000000000000000 ) ) ;
#177 = PRODUCT_DEFINITION_SHAPE ( 'NONE', 'NONE',  #201 ) ;
#178 = PRODUCT ( '096p0353005m6', '096p0353005m6', '', ( #45 ) ) ;
#179 = EDGE_CURVE ( 'NONE', #34, #252, #46, .T. ) ;
#180 = PRESENTATION_STYLE_ASSIGNMENT (( #240 ) ) ;
#181 = EDGE_LOOP ( 'NONE', ( #248, #25, #219, #32 ) ) ;
#182 = CARTESIAN_POINT ( 'NONE',  ( 0.0000000000000000000, 0.0000000000000000000, 5.000000000000000000 ) ) ;
#183 = MECHANICAL_DESIGN_GEOMETRIC_PRESENTATION_REPRESENTATION (  '', ( #243 ), #167 ) ;
#184 = EDGE_CURVE ( 'NONE', #188, #138, #161, .T. ) ;
#185 = AXIS2_PLACEMENT_3D ( 'NONE', #76, #62, #51 ) ;
#186 = ORIENTED_EDGE ( 'NONE', *, *, #168, .F. ) ;
#187 = CARTESIAN_POINT ( 'NONE',  ( 0.0000000000000000000, 35.00000000000000000, 5.000000000000000000 ) ) ;
#188 = VERTEX_POINT ( 'NONE', #189 ) ;
#189 = CARTESIAN_POINT ( 'NONE',  ( 12.49999999999999600, 17.50000000000000000, 5.000000000000000000 ) ) ;
#190 = CARTESIAN_POINT ( 'NONE',  ( 0.0000000000000000000, 35.00000000000000000, 0.0000000000000000000 ) ) ;
#191 = VECTOR ( 'NONE', #246, 1000.000000000000000 ) ;
#192 = DIRECTION ( 'NONE',  ( 1.000000000000000000, 0.0000000000000000000, 0.0000000000000000000 ) ) ;
#193 = AXIS2_PLACEMENT_3D ( 'NONE', #176, #141, #117 ) ;
#194 = DIRECTION ( 'NONE',  ( 0.0000000000000000000, 0.0000000000000000000, 1.000000000000000000 ) ) ;
#195 = VERTEX_POINT ( 'NONE', #214 ) ;
#196 = CARTESIAN_POINT ( 'NONE',  ( 14.99999999999999600, 17.50000000000000000, 5.000000000000000000 ) ) ;
#197 = ORIENTED_EDGE ( 'NONE', *, *, #129, .F. ) ;
#198 = ORIENTED_EDGE ( 'NONE', *, *, #63, .F. ) ;
#199 = CARTESIAN_POINT ( 'NONE',  ( 0.0000000000000000000, 0.0000000000000000000, 5.000000000000000000 ) ) ;
#200 = VECTOR ( 'NONE', #162, 1000.000000000000000 ) ;
#201 = PRODUCT_DEFINITION ( 'UNKNOWN', '', #215, #256 ) ;
#202 = ADVANCED_FACE ( 'NONE', ( #36, #95 ), #146, .T. ) ;
#203 = MECHANICAL_DESIGN_GEOMETRIC_PRESENTATION_REPRESENTATION (  '', ( #115 ), #250 ) ;
#204 = ORIENTED_EDGE ( 'NONE', *, *, #171, .F. ) ;
#205 = ADVANCED_FACE ( 'NONE', ( #30 ), #112, .F. ) ;
#206 = SURFACE_STYLE_FILL_AREA ( #244 ) ;
#207 = LINE ( 'NONE', #106, #260 ) ;
#208 = PRESENTATION_LAYER_ASSIGNMENT (  '', '', ( #243 ) ) ;
#209 = AXIS2_PLACEMENT_3D ( 'NONE', #23, #18, #5 ) ;
#210 = SHAPE_DEFINITION_REPRESENTATION ( #177, #41 ) ;
#211 = EDGE_LOOP ( 'NONE', ( #43, #270, #21, #186 ) ) ;
#212 = DIRECTION ( 'NONE',  ( -0.0000000000000000000, -0.0000000000000000000, -1.000000000000000000 ) ) ;
#213 = FACE_OUTER_BOUND ( 'NONE', #163, .T. ) ;
#214 = CARTESIAN_POINT ( 'NONE',  ( 0.0000000000000000000, 35.00000000000000000, 5.000000000000000000 ) ) ;
#215 = PRODUCT_DEFINITION_FORMATION_WITH_SPECIFIED_SOURCE ( 'ANY', '', #178, .NOT_KNOWN. ) ;
#216 = LINE ( 'NONE', #84, #140 ) ;
#217 = CARTESIAN_POINT ( 'NONE',  ( 30.00000000000000000, 3.673819061467131800E-015, 5.000000000000000000 ) ) ;
#218 = DIRECTION ( 'NONE',  ( 1.000000000000000000, 1.224606353822377300E-016, 0.0000000000000000000 ) ) ;
#219 = ORIENTED_EDGE ( 'NONE', *, *, #274, .F. ) ;
#220 = LINE ( 'NONE', #217, #48 ) ;
#221 = EDGE_CURVE ( 'NONE', #195, #34, #207, .T. ) ;
#222 = ADVANCED_FACE ( 'NONE', ( #213 ), #151, .F. ) ;
#223 = DIRECTION ( 'NONE',  ( -0.0000000000000000000, -0.0000000000000000000, -1.000000000000000000 ) ) ;
#224 = EDGE_LOOP ( 'NONE', ( #118, #38, #230, #100 ) ) ;
#225 = ADVANCED_FACE ( 'NONE', ( #255 ), #14, .F. ) ;
#226 = EDGE_CURVE ( 'NONE', #34, #91, #108, .T. ) ;
#227 = PRODUCT_RELATED_PRODUCT_CATEGORY ( 'part', '', ( #178 ) ) ;
#228 = LINE ( 'NONE', #269, #254 ) ;
#229 = CLOSED_SHELL ( 'NONE', ( #116, #26, #202, #225, #20, #120, #205, #222 ) ) ;
#230 = ORIENTED_EDGE ( 'NONE', *, *, #179, .F. ) ;
#231 = DIRECTION ( 'NONE',  ( -1.000000000000000000, 0.0000000000000000000, 0.0000000000000000000 ) ) ;
#232 = ORIENTED_EDGE ( 'NONE', *, *, #31, .T. ) ;
#233 = PRESENTATION_LAYER_ASSIGNMENT (  '', '', ( #115 ) ) ;
#234 =( NAMED_UNIT ( * ) SI_UNIT ( $, .STERADIAN. ) SOLID_ANGLE_UNIT ( ) );
#235 =( NAMED_UNIT ( * ) PLANE_ANGLE_UNIT ( ) SI_UNIT ( $, .RADIAN. ) );
#236 = SURFACE_STYLE_FILL_AREA ( #74 ) ;
#237 =( LENGTH_UNIT ( ) NAMED_UNIT ( * ) SI_UNIT ( .MILLI., .METRE. ) );
#238 = FACE_OUTER_BOUND ( 'NONE', #170, .T. ) ;
#239 = EDGE_LOOP ( 'NONE', ( #33, #148, #197, #125 ) ) ;
#240 = SURFACE_STYLE_USAGE ( .BOTH. , #242 ) ;
#241 = CARTESIAN_POINT ( 'NONE',  ( 17.49999999999999600, 17.50000000000000000, 5.000000000000000000 ) ) ;
#242 = SURFACE_SIDE_STYLE ('',( #206 ) ) ;
#243 = STYLED_ITEM ( 'NONE', ( #180 ), #166 ) ;
#244 = FILL_AREA_STYLE ('',( #271 ) ) ;
#245 = EDGE_CURVE ( 'NONE', #252, #103, #220, .T. ) ;
#246 = DIRECTION ( 'NONE',  ( -0.0000000000000000000, -0.0000000000000000000, -1.000000000000000000 ) ) ;
#247 = ORIENTED_EDGE ( 'NONE', *, *, #17, .T. ) ;
#248 = ORIENTED_EDGE ( 'NONE', *, *, #142, .T. ) ;
#249 = ORIENTED_EDGE ( 'NONE', *, *, #66, .F. ) ;
#250 =( GEOMETRIC_REPRESENTATION_CONTEXT ( 3 ) GLOBAL_UNCERTAINTY_ASSIGNED_CONTEXT ( ( #99 ) ) GLOBAL_UNIT_ASSIGNED_CONTEXT ( ( #68, #64, #67 ) ) REPRESENTATION_CONTEXT ( 'NONE', 'WORKASPACE' ) );
#251 = VERTEX_POINT ( 'NONE', #152 ) ;
#252 = VERTEX_POINT ( 'NONE', #8 ) ;
#253 = CARTESIAN_POINT ( 'NONE',  ( 0.0000000000000000000, 0.0000000000000000000, 0.0000000000000000000 ) ) ;
#254 = VECTOR ( 'NONE', #257, 1000.000000000000000 ) ;
#255 = FACE_OUTER_BOUND ( 'NONE', #61, .T. ) ;
#256 = PRODUCT_DEFINITION_CONTEXT ( 'detailed design', #40, 'design' ) ;
#257 = DIRECTION ( 'NONE',  ( -1.000000000000000000, -0.0000000000000000000, -0.0000000000000000000 ) ) ;
#258 = DIRECTION ( 'NONE',  ( 1.000000000000000000, 1.224606353822377300E-016, 0.0000000000000000000 ) ) ;
#259 = FACE_OUTER_BOUND ( 'NONE', #239, .T. ) ;
#260 = VECTOR ( 'NONE', #110, 1000.000000000000000 ) ;
#261 = AXIS2_PLACEMENT_3D ( 'NONE', #107, #126, #16 ) ;
#262 = COLOUR_RGB ( '',0.4823529411764706000, 0.4901960784313725300, 0.4941176470588235500 ) ;
#263 = EDGE_CURVE ( 'NONE', #188, #251, #114, .T. ) ;
#264 = LINE ( 'NONE', #122, #92 ) ;
#265 = DIRECTION ( 'NONE',  ( 0.0000000000000000000, 0.0000000000000000000, 1.000000000000000000 ) ) ;
#266 = ORIENTED_EDGE ( 'NONE', *, *, #129, .T. ) ;
#267 = AXIS2_PLACEMENT_3D ( 'NONE', #42, #12, #10 ) ;
#268 = CARTESIAN_POINT ( 'NONE',  ( 14.99999999999999600, 17.50000000000000000, 0.0000000000000000000 ) ) ;
#269 = CARTESIAN_POINT ( 'NONE',  ( 0.0000000000000000000, 35.00000000000000000, 0.0000000000000000000 ) ) ;
#270 = ORIENTED_EDGE ( 'NONE', *, *, #142, .F. ) ;
#271 = FILL_AREA_STYLE_COLOUR ( '', #262 ) ;
#272 = UNCERTAINTY_MEASURE_WITH_UNIT (LENGTH_MEASURE( 1.000000000000000100E-005 ), #237, 'distance_accuracy_value', 'NONE');
#273 = AXIS2_PLACEMENT_3D ( 'NONE', #52, #212, #231 ) ;
#274 = EDGE_CURVE ( 'NONE', #103, #195, #27, .T. ) ;
#275 = EDGE_LOOP ( 'NONE', ( #266, #85 ) ) ;
#276 = ORIENTED_EDGE ( 'NONE', *, *, #263, .T. ) ;
ENDSEC;
END-ISO-10303-21;
