ISO-10303-21;
HEADER;
FILE_DESCRIPTION (( 'STEP AP214' ),
    '1' );
FILE_NAME ('096p0323008m8.STEP',
    '2014-08-18T12:59:07',
    ( '' ),
    ( '' ),
    'SwSTEP 2.0',
    'SolidWorks 2014',
    '' );
FILE_SCHEMA (( 'AUTOMOTIVE_DESIGN' ));
ENDSEC;

DATA;
#1 = DIRECTION ( 'NONE',  ( 0.0000000000000000000, 0.0000000000000000000, -1.000000000000000000 ) ) ;
#2 = DIRECTION ( 'NONE',  ( -0.0000000000000000000, -1.000000000000000000, -0.0000000000000000000 ) ) ;
#3 = EDGE_CURVE ( 'NONE', #103, #73, #276, .T. ) ;
#4 = CARTESIAN_POINT ( 'NONE',  ( 0.0000000000000000000, 32.00000000000000000, 8.000000000000000000 ) ) ;
#5 = DIRECTION ( 'NONE',  ( 0.0000000000000000000, 1.000000000000000000, 0.0000000000000000000 ) ) ;
#6 = LINE ( 'NONE', #61, #154 ) ;
#7 = PLANE ( 'NONE',  #38 ) ;
#8 = CYLINDRICAL_SURFACE ( 'NONE', #177, 3.300000000000004300 ) ;
#9 = PLANE ( 'NONE',  #79 ) ;
#10 =( GEOMETRIC_REPRESENTATION_CONTEXT ( 3 ) GLOBAL_UNCERTAINTY_ASSIGNED_CONTEXT ( ( #67 ) ) GLOBAL_UNIT_ASSIGNED_CONTEXT ( ( #134, #55, #44 ) ) REPRESENTATION_CONTEXT ( 'NONE', 'WORKASPACE' ) );
#11 = CARTESIAN_POINT ( 'NONE',  ( 0.0000000000000000000, 0.0000000000000000000, 0.0000000000000000000 ) ) ;
#12 = DIRECTION ( 'NONE',  ( 1.000000000000000000, 0.0000000000000000000, 0.0000000000000000000 ) ) ;
#13 = SURFACE_STYLE_FILL_AREA ( #208 ) ;
#14 = DIRECTION ( 'NONE',  ( 0.0000000000000000000, 0.0000000000000000000, 1.000000000000000000 ) ) ;
#15 = CARTESIAN_POINT ( 'NONE',  ( 14.99999999999999600, 16.00000000000000000, 0.0000000000000000000 ) ) ;
#16 = FACE_OUTER_BOUND ( 'NONE', #181, .T. ) ;
#17 = CARTESIAN_POINT ( 'NONE',  ( 14.99999999999999600, 16.00000000000000000, 8.000000000000000000 ) ) ;
#18 = ORIENTED_EDGE ( 'NONE', *, *, #235, .T. ) ;
#19 = ORIENTED_EDGE ( 'NONE', *, *, #115, .F. ) ;
#20 = AXIS2_PLACEMENT_3D ( 'NONE', #236, #49, #24 ) ;
#21 = DIRECTION ( 'NONE',  ( 1.000000000000000000, 0.0000000000000000000, 0.0000000000000000000 ) ) ;
#22 = PRODUCT ( '096p0323008m8', '096p0323008m8', '', ( #144 ) ) ;
#23 = MECHANICAL_DESIGN_GEOMETRIC_PRESENTATION_REPRESENTATION (  '', ( #143 ), #10 ) ;
#24 = DIRECTION ( 'NONE',  ( -1.000000000000000000, 0.0000000000000000000, -0.0000000000000000000 ) ) ;
#25 = ADVANCED_FACE ( 'NONE', ( #16 ), #8, .F. ) ;
#26 = CARTESIAN_POINT ( 'NONE',  ( 0.0000000000000000000, 32.00000000000000000, 0.0000000000000000000 ) ) ;
#27 = ORIENTED_EDGE ( 'NONE', *, *, #161, .T. ) ;
#28 = AXIS2_PLACEMENT_3D ( 'NONE', #185, #242, #191 ) ;
#29 = DIRECTION ( 'NONE',  ( -1.000000000000000000, 0.0000000000000000000, -0.0000000000000000000 ) ) ;
#30 = CARTESIAN_POINT ( 'NONE',  ( 14.99999999999999600, 16.00000000000000000, 8.000000000000000000 ) ) ;
#31 = CARTESIAN_POINT ( 'NONE',  ( 30.00000000000000000, 3.673819061467131800E-015, 8.000000000000000000 ) ) ;
#32 = ORIENTED_EDGE ( 'NONE', *, *, #155, .T. ) ;
#33 = ORIENTED_EDGE ( 'NONE', *, *, #56, .T. ) ;
#34 = VECTOR ( 'NONE', #150, 1000.000000000000000 ) ;
#35 = LINE ( 'NONE', #11, #117 ) ;
#36 = DIRECTION ( 'NONE',  ( 0.0000000000000000000, 0.0000000000000000000, 1.000000000000000000 ) ) ;
#37 = DIRECTION ( 'NONE',  ( -0.0000000000000000000, -0.0000000000000000000, -1.000000000000000000 ) ) ;
#38 = AXIS2_PLACEMENT_3D ( 'NONE', #53, #93, #92 ) ;
#39 = ORIENTED_EDGE ( 'NONE', *, *, #225, .T. ) ;
#40 = DIRECTION ( 'NONE',  ( 1.000000000000000000, 0.0000000000000000000, 0.0000000000000000000 ) ) ;
#41 = ORIENTED_EDGE ( 'NONE', *, *, #106, .T. ) ;
#42 = DIRECTION ( 'NONE',  ( -0.0000000000000000000, -0.0000000000000000000, -1.000000000000000000 ) ) ;
#43 = VECTOR ( 'NONE', #124, 1000.000000000000000 ) ;
#44 =( NAMED_UNIT ( * ) SI_UNIT ( $, .STERADIAN. ) SOLID_ANGLE_UNIT ( ) );
#45 = COLOUR_RGB ( '',1.000000000000000000, 1.000000000000000000, 1.000000000000000000 ) ;
#46 = DIRECTION ( 'NONE',  ( 0.0000000000000000000, 0.0000000000000000000, 1.000000000000000000 ) ) ;
#47 = AXIS2_PLACEMENT_3D ( 'NONE', #15, #14, #12 ) ;
#48 = PLANE ( 'NONE',  #91 ) ;
#49 = DIRECTION ( 'NONE',  ( 0.0000000000000000000, 0.0000000000000000000, -1.000000000000000000 ) ) ;
#50 = ORIENTED_EDGE ( 'NONE', *, *, #138, .F. ) ;
#51 = ORIENTED_EDGE ( 'NONE', *, *, #115, .T. ) ;
#52 = VERTEX_POINT ( 'NONE', #148 ) ;
#53 = CARTESIAN_POINT ( 'NONE',  ( 0.0000000000000000000, 0.0000000000000000000, 8.000000000000000000 ) ) ;
#54 = LINE ( 'NONE', #220, #147 ) ;
#55 =( NAMED_UNIT ( * ) PLANE_ANGLE_UNIT ( ) SI_UNIT ( $, .RADIAN. ) );
#56 = EDGE_CURVE ( 'NONE', #87, #164, #104, .T. ) ;
#57 = PRESENTATION_LAYER_ASSIGNMENT (  '', '', ( #143 ) ) ;
#58 = ORIENTED_EDGE ( 'NONE', *, *, #3, .F. ) ;
#59 = ORIENTED_EDGE ( 'NONE', *, *, #194, .T. ) ;
#60 = LINE ( 'NONE', #133, #269 ) ;
#61 = CARTESIAN_POINT ( 'NONE',  ( 0.0000000000000000000, 0.0000000000000000000, 8.000000000000000000 ) ) ;
#62 = CARTESIAN_POINT ( 'NONE',  ( 0.0000000000000000000, 0.0000000000000000000, 8.000000000000000000 ) ) ;
#63 = EDGE_CURVE ( 'NONE', #238, #52, #60, .T. ) ;
#64 = ORIENTED_EDGE ( 'NONE', *, *, #63, .T. ) ;
#65 = CARTESIAN_POINT ( 'NONE',  ( 11.69999999999999200, 16.00000000000000000, 8.000000000000000000 ) ) ;
#66 = CLOSED_SHELL ( 'NONE', ( #196, #81, #128, #172, #217, #274, #99, #25 ) ) ;
#67 = UNCERTAINTY_MEASURE_WITH_UNIT (LENGTH_MEASURE( 1.000000000000000100E-005 ), #134, 'distance_accuracy_value', 'NONE');
#68 = EDGE_CURVE ( 'NONE', #267, #164, #83, .T. ) ;
#69 = VERTEX_POINT ( 'NONE', #193 ) ;
#70 = PRESENTATION_STYLE_ASSIGNMENT (( #182 ) ) ;
#71 = FACE_OUTER_BOUND ( 'NONE', #152, .T. ) ;
#72 = EDGE_CURVE ( 'NONE', #103, #112, #179, .T. ) ;
#73 = VERTEX_POINT ( 'NONE', #213 ) ;
#74 = EDGE_CURVE ( 'NONE', #52, #87, #54, .T. ) ;
#75 = FACE_BOUND ( 'NONE', #252, .T. ) ;
#76 = DIRECTION ( 'NONE',  ( -0.0000000000000000000, -1.000000000000000000, -0.0000000000000000000 ) ) ;
#77 = SURFACE_STYLE_FILL_AREA ( #227 ) ;
#78 = LINE ( 'NONE', #31, #228 ) ;
#79 = AXIS2_PLACEMENT_3D ( 'NONE', #89, #233, #268 ) ;
#80 = CARTESIAN_POINT ( 'NONE',  ( 30.00000000000000000, 3.673819061467131800E-015, 8.000000000000000000 ) ) ;
#81 = ADVANCED_FACE ( 'NONE', ( #166, #75 ), #202, .F. ) ;
#82 = EDGE_LOOP ( 'NONE', ( #33, #245, #237, #216 ) ) ;
#83 = LINE ( 'NONE', #151, #198 ) ;
#84 = FACE_OUTER_BOUND ( 'NONE', #122, .T. ) ;
#85 = DIRECTION ( 'NONE',  ( 1.000000000000000000, 0.0000000000000000000, 0.0000000000000000000 ) ) ;
#86 = CARTESIAN_POINT ( 'NONE',  ( 18.30000000000000100, 16.00000000000000000, 8.000000000000000000 ) ) ;
#87 = VERTEX_POINT ( 'NONE', #241 ) ;
#88 = ORIENTED_EDGE ( 'NONE', *, *, #98, .F. ) ;
#89 = CARTESIAN_POINT ( 'NONE',  ( 0.0000000000000000000, 0.0000000000000000000, 8.000000000000000000 ) ) ;
#90 = VECTOR ( 'NONE', #37, 1000.000000000000000 ) ;
#91 = AXIS2_PLACEMENT_3D ( 'NONE', #100, #1, #29 ) ;
#92 = DIRECTION ( 'NONE',  ( 0.0000000000000000000, 0.0000000000000000000, -1.000000000000000000 ) ) ;
#93 = DIRECTION ( 'NONE',  ( 1.000000000000000000, 0.0000000000000000000, 0.0000000000000000000 ) ) ;
#94 = VERTEX_POINT ( 'NONE', #219 ) ;
#95 = CARTESIAN_POINT ( 'NONE',  ( 0.0000000000000000000, 32.00000000000000000, 8.000000000000000000 ) ) ;
#96 = EDGE_LOOP ( 'NONE', ( #27, #39, #159, #264 ) ) ;
#97 = DIRECTION ( 'NONE',  ( -0.0000000000000000000, -0.0000000000000000000, -1.000000000000000000 ) ) ;
#98 = EDGE_CURVE ( 'NONE', #69, #52, #206, .T. ) ;
#99 = ADVANCED_FACE ( 'NONE', ( #184 ), #169, .F. ) ;
#100 = CARTESIAN_POINT ( 'NONE',  ( 0.0000000000000000000, 32.00000000000000000, 0.0000000000000000000 ) ) ;
#101 = ORIENTED_EDGE ( 'NONE', *, *, #235, .F. ) ;
#102 = SHAPE_DEFINITION_REPRESENTATION ( #126, #121 ) ;
#103 = VERTEX_POINT ( 'NONE', #86 ) ;
#104 = LINE ( 'NONE', #153, #34 ) ;
#105 = DIRECTION ( 'NONE',  ( 0.0000000000000000000, -1.000000000000000000, 0.0000000000000000000 ) ) ;
#106 = EDGE_CURVE ( 'NONE', #73, #103, #139, .T. ) ;
#107 = DIRECTION ( 'NONE',  ( -0.0000000000000000000, -0.0000000000000000000, -1.000000000000000000 ) ) ;
#108 = STYLED_ITEM ( 'NONE', ( #254 ), #170 ) ;
#109 = CARTESIAN_POINT ( 'NONE',  ( 18.30000000000000100, 16.00000000000000000, 0.0000000000000000000 ) ) ;
#110 = CIRCLE ( 'NONE', #28, 3.300000000000004300 ) ;
#111 = DIRECTION ( 'NONE',  ( 0.0000000000000000000, -0.0000000000000000000, -1.000000000000000000 ) ) ;
#112 = VERTEX_POINT ( 'NONE', #109 ) ;
#113 = VECTOR ( 'NONE', #42, 1000.000000000000000 ) ;
#114 = APPLICATION_CONTEXT ( 'automotive_design' ) ;
#115 = EDGE_CURVE ( 'NONE', #73, #244, #119, .T. ) ;
#116 = CARTESIAN_POINT ( 'NONE',  ( 11.69999999999999200, 16.00000000000000000, 0.0000000000000000000 ) ) ;
#117 = VECTOR ( 'NONE', #76, 1000.000000000000000 ) ;
#118 = DIRECTION ( 'NONE',  ( -0.0000000000000000000, -0.0000000000000000000, -1.000000000000000000 ) ) ;
#119 = LINE ( 'NONE', #65, #113 ) ;
#120 = ORIENTED_EDGE ( 'NONE', *, *, #3, .T. ) ;
#121 = ADVANCED_BREP_SHAPE_REPRESENTATION ( '096p0323008m8', ( #170, #162 ), #201 ) ;
#122 = EDGE_LOOP ( 'NONE', ( #221, #146, #50, #275 ) ) ;
#123 = DIRECTION ( 'NONE',  ( 1.000000000000000000, 1.224606353822377300E-016, 0.0000000000000000000 ) ) ;
#124 = DIRECTION ( 'NONE',  ( -1.000000000000000000, -0.0000000000000000000, -0.0000000000000000000 ) ) ;
#125 = CIRCLE ( 'NONE', #47, 3.300000000000004300 ) ;
#126 = PRODUCT_DEFINITION_SHAPE ( 'NONE', 'NONE',  #178 ) ;
#127 = CARTESIAN_POINT ( 'NONE',  ( 14.99999999999999600, 16.00000000000000000, 8.000000000000000000 ) ) ;
#128 = ADVANCED_FACE ( 'NONE', ( #130, #230 ), #48, .T. ) ;
#129 = DIRECTION ( 'NONE',  ( 0.0000000000000000000, 0.0000000000000000000, 1.000000000000000000 ) ) ;
#130 = FACE_OUTER_BOUND ( 'NONE', #189, .T. ) ;
#131 = FACE_OUTER_BOUND ( 'NONE', #250, .T. ) ;
#132 = AXIS2_PLACEMENT_3D ( 'NONE', #176, #129, #85 ) ;
#133 = CARTESIAN_POINT ( 'NONE',  ( 0.0000000000000000000, 0.0000000000000000000, 0.0000000000000000000 ) ) ;
#134 =( LENGTH_UNIT ( ) NAMED_UNIT ( * ) SI_UNIT ( .MILLI., .METRE. ) );
#135 = VERTEX_POINT ( 'NONE', #62 ) ;
#136 = APPLICATION_PROTOCOL_DEFINITION ( 'draft international standard', 'automotive_design', 1998, #114 ) ;
#137 = ORIENTED_EDGE ( 'NONE', *, *, #68, .T. ) ;
#138 = EDGE_CURVE ( 'NONE', #69, #94, #78, .T. ) ;
#139 = CIRCLE ( 'NONE', #183, 3.300000000000004300 ) ;
#140 = DIRECTION ( 'NONE',  ( -1.000000000000000000, 0.0000000000000000000, 0.0000000000000000000 ) ) ;
#141 = LINE ( 'NONE', #4, #43 ) ;
#142 = VECTOR ( 'NONE', #97, 1000.000000000000000 ) ;
#143 = STYLED_ITEM ( 'NONE', ( #70 ), #121 ) ;
#144 = PRODUCT_CONTEXT ( 'NONE', #224, 'mechanical' ) ;
#145 = ORIENTED_EDGE ( 'NONE', *, *, #155, .F. ) ;
#146 = ORIENTED_EDGE ( 'NONE', *, *, #222, .F. ) ;
#147 = VECTOR ( 'NONE', #259, 1000.000000000000000 ) ;
#148 = CARTESIAN_POINT ( 'NONE',  ( 30.00000000000000000, 3.673819061467131800E-015, 0.0000000000000000000 ) ) ;
#149 = EDGE_CURVE ( 'NONE', #94, #267, #141, .T. ) ;
#150 = DIRECTION ( 'NONE',  ( -1.000000000000000000, -0.0000000000000000000, -0.0000000000000000000 ) ) ;
#151 = CARTESIAN_POINT ( 'NONE',  ( 0.0000000000000000000, 32.00000000000000000, 8.000000000000000000 ) ) ;
#152 = EDGE_LOOP ( 'NONE', ( #253, #101, #197, #137 ) ) ;
#153 = CARTESIAN_POINT ( 'NONE',  ( 0.0000000000000000000, 32.00000000000000000, 0.0000000000000000000 ) ) ;
#154 = VECTOR ( 'NONE', #2, 1000.000000000000000 ) ;
#155 = EDGE_CURVE ( 'NONE', #244, #112, #110, .T. ) ;
#156 = DIRECTION ( 'NONE',  ( -0.0000000000000000000, -0.0000000000000000000, -1.000000000000000000 ) ) ;
#157 = AXIS2_PLACEMENT_3D ( 'NONE', #17, #118, #160 ) ;
#158 = ORIENTED_EDGE ( 'NONE', *, *, #106, .F. ) ;
#159 = ORIENTED_EDGE ( 'NONE', *, *, #138, .T. ) ;
#160 = DIRECTION ( 'NONE',  ( -1.000000000000000000, 0.0000000000000000000, 0.0000000000000000000 ) ) ;
#161 = EDGE_CURVE ( 'NONE', #267, #135, #6, .T. ) ;
#162 = AXIS2_PLACEMENT_3D ( 'NONE', #248, #36, #40 ) ;
#163 = CARTESIAN_POINT ( 'NONE',  ( 30.00000000000000000, 3.673819061467131800E-015, 8.000000000000000000 ) ) ;
#164 = VERTEX_POINT ( 'NONE', #26 ) ;
#165 = ORIENTED_EDGE ( 'NONE', *, *, #74, .F. ) ;
#166 = FACE_OUTER_BOUND ( 'NONE', #96, .T. ) ;
#167 =( NAMED_UNIT ( * ) SI_UNIT ( $, .STERADIAN. ) SOLID_ANGLE_UNIT ( ) );
#168 = DIRECTION ( 'NONE',  ( -0.0000000000000000000, -0.0000000000000000000, -1.000000000000000000 ) ) ;
#169 = PLANE ( 'NONE',  #239 ) ;
#170 = MANIFOLD_SOLID_BREP ( 'Basis-Linear austragen', #66 ) ;
#171 = DIRECTION ( 'NONE',  ( -1.000000000000000000, 0.0000000000000000000, 0.0000000000000000000 ) ) ;
#172 = ADVANCED_FACE ( 'NONE', ( #71 ), #7, .F. ) ;
#173 = VECTOR ( 'NONE', #215, 1000.000000000000000 ) ;
#174 = CARTESIAN_POINT ( 'NONE',  ( 18.30000000000000100, 16.00000000000000000, 8.000000000000000000 ) ) ;
#175 = PRESENTATION_LAYER_ASSIGNMENT (  '', '', ( #108 ) ) ;
#176 = CARTESIAN_POINT ( 'NONE',  ( 14.99999999999999600, 16.00000000000000000, 8.000000000000000000 ) ) ;
#177 = AXIS2_PLACEMENT_3D ( 'NONE', #127, #107, #171 ) ;
#178 = PRODUCT_DEFINITION ( 'UNKNOWN', '', #195, #247 ) ;
#179 = LINE ( 'NONE', #174, #173 ) ;
#180 =( NAMED_UNIT ( * ) PLANE_ANGLE_UNIT ( ) SI_UNIT ( $, .RADIAN. ) );
#181 = EDGE_LOOP ( 'NONE', ( #240, #120, #51, #190 ) ) ;
#182 = SURFACE_STYLE_USAGE ( .BOTH. , #249 ) ;
#183 = AXIS2_PLACEMENT_3D ( 'NONE', #30, #46, #21 ) ;
#184 = FACE_OUTER_BOUND ( 'NONE', #82, .T. ) ;
#185 = CARTESIAN_POINT ( 'NONE',  ( 14.99999999999999600, 16.00000000000000000, 0.0000000000000000000 ) ) ;
#186 = DIRECTION ( 'NONE',  ( 0.0000000000000000000, 0.0000000000000000000, 1.000000000000000000 ) ) ;
#187 =( LENGTH_UNIT ( ) NAMED_UNIT ( * ) SI_UNIT ( .MILLI., .METRE. ) );
#188 = SURFACE_STYLE_USAGE ( .BOTH. , #205 ) ;
#189 = EDGE_LOOP ( 'NONE', ( #211, #260, #165, #243 ) ) ;
#190 = ORIENTED_EDGE ( 'NONE', *, *, #194, .F. ) ;
#191 = DIRECTION ( 'NONE',  ( 1.000000000000000000, 0.0000000000000000000, 0.0000000000000000000 ) ) ;
#192 = LINE ( 'NONE', #223, #214 ) ;
#193 = CARTESIAN_POINT ( 'NONE',  ( 30.00000000000000000, 3.673819061467131800E-015, 8.000000000000000000 ) ) ;
#194 = EDGE_CURVE ( 'NONE', #112, #244, #125, .T. ) ;
#195 = PRODUCT_DEFINITION_FORMATION_WITH_SPECIFIED_SOURCE ( 'ANY', '', #22, .NOT_KNOWN. ) ;
#196 = ADVANCED_FACE ( 'NONE', ( #131 ), #207, .F. ) ;
#197 = ORIENTED_EDGE ( 'NONE', *, *, #161, .F. ) ;
#198 = VECTOR ( 'NONE', #168, 1000.000000000000000 ) ;
#199 = EDGE_CURVE ( 'NONE', #164, #238, #35, .T. ) ;
#200 = COLOUR_RGB ( '',1.000000000000000000, 1.000000000000000000, 1.000000000000000000 ) ;
#201 =( GEOMETRIC_REPRESENTATION_CONTEXT ( 3 ) GLOBAL_UNCERTAINTY_ASSIGNED_CONTEXT ( ( #234 ) ) GLOBAL_UNIT_ASSIGNED_CONTEXT ( ( #273, #265, #263 ) ) REPRESENTATION_CONTEXT ( 'NONE', 'WORKASPACE' ) );
#202 = PLANE ( 'NONE',  #20 ) ;
#203 = EDGE_LOOP ( 'NONE', ( #32, #59 ) ) ;
#204 = ORIENTED_EDGE ( 'NONE', *, *, #225, .F. ) ;
#205 = SURFACE_SIDE_STYLE ('',( #13 ) ) ;
#206 = LINE ( 'NONE', #80, #218 ) ;
#207 = CYLINDRICAL_SURFACE ( 'NONE', #157, 3.300000000000004300 ) ;
#208 = FILL_AREA_STYLE ('',( #251 ) ) ;
#209 = PRODUCT_RELATED_PRODUCT_CATEGORY ( 'part', '', ( #22 ) ) ;
#210 = APPLICATION_PROTOCOL_DEFINITION ( 'draft international standard', 'automotive_design', 1998, #224 ) ;
#211 = ORIENTED_EDGE ( 'NONE', *, *, #199, .F. ) ;
#212 = CARTESIAN_POINT ( 'NONE',  ( 30.00000000000000000, 32.00000000000000000, 8.000000000000000000 ) ) ;
#213 = CARTESIAN_POINT ( 'NONE',  ( 11.69999999999999200, 16.00000000000000000, 8.000000000000000000 ) ) ;
#214 = VECTOR ( 'NONE', #231, 1000.000000000000000 ) ;
#215 = DIRECTION ( 'NONE',  ( -0.0000000000000000000, -0.0000000000000000000, -1.000000000000000000 ) ) ;
#216 = ORIENTED_EDGE ( 'NONE', *, *, #222, .T. ) ;
#217 = ADVANCED_FACE ( 'NONE', ( #255 ), #9, .F. ) ;
#218 = VECTOR ( 'NONE', #156, 1000.000000000000000 ) ;
#219 = CARTESIAN_POINT ( 'NONE',  ( 30.00000000000000000, 32.00000000000000000, 8.000000000000000000 ) ) ;
#220 = CARTESIAN_POINT ( 'NONE',  ( 30.00000000000000000, 3.673819061467131800E-015, 0.0000000000000000000 ) ) ;
#221 = ORIENTED_EDGE ( 'NONE', *, *, #74, .T. ) ;
#222 = EDGE_CURVE ( 'NONE', #94, #87, #261, .T. ) ;
#223 = CARTESIAN_POINT ( 'NONE',  ( 0.0000000000000000000, 0.0000000000000000000, 8.000000000000000000 ) ) ;
#224 = APPLICATION_CONTEXT ( 'automotive_design' ) ;
#225 = EDGE_CURVE ( 'NONE', #135, #69, #192, .T. ) ;
#226 = CARTESIAN_POINT ( 'NONE',  ( 0.0000000000000000000, 0.0000000000000000000, 8.000000000000000000 ) ) ;
#227 = FILL_AREA_STYLE ('',( #229 ) ) ;
#228 = VECTOR ( 'NONE', #5, 1000.000000000000000 ) ;
#229 = FILL_AREA_STYLE_COLOUR ( '', #45 ) ;
#230 = FACE_BOUND ( 'NONE', #203, .T. ) ;
#231 = DIRECTION ( 'NONE',  ( 1.000000000000000000, 1.224606353822377300E-016, 0.0000000000000000000 ) ) ;
#232 = MECHANICAL_DESIGN_GEOMETRIC_PRESENTATION_REPRESENTATION (  '', ( #108 ), #256 ) ;
#233 = DIRECTION ( 'NONE',  ( -1.224606353822377300E-016, 1.000000000000000000, 0.0000000000000000000 ) ) ;
#234 = UNCERTAINTY_MEASURE_WITH_UNIT (LENGTH_MEASURE( 1.000000000000000100E-005 ), #273, 'distance_accuracy_value', 'NONE');
#235 = EDGE_CURVE ( 'NONE', #135, #238, #246, .T. ) ;
#236 = CARTESIAN_POINT ( 'NONE',  ( 0.0000000000000000000, 32.00000000000000000, 8.000000000000000000 ) ) ;
#237 = ORIENTED_EDGE ( 'NONE', *, *, #149, .F. ) ;
#238 = VERTEX_POINT ( 'NONE', #270 ) ;
#239 = AXIS2_PLACEMENT_3D ( 'NONE', #271, #105, #111 ) ;
#240 = ORIENTED_EDGE ( 'NONE', *, *, #72, .F. ) ;
#241 = CARTESIAN_POINT ( 'NONE',  ( 30.00000000000000000, 32.00000000000000000, 0.0000000000000000000 ) ) ;
#242 = DIRECTION ( 'NONE',  ( 0.0000000000000000000, 0.0000000000000000000, 1.000000000000000000 ) ) ;
#243 = ORIENTED_EDGE ( 'NONE', *, *, #63, .F. ) ;
#244 = VERTEX_POINT ( 'NONE', #116 ) ;
#245 = ORIENTED_EDGE ( 'NONE', *, *, #68, .F. ) ;
#246 = LINE ( 'NONE', #226, #142 ) ;
#247 = PRODUCT_DEFINITION_CONTEXT ( 'detailed design', #114, 'design' ) ;
#248 = CARTESIAN_POINT ( 'NONE',  ( 0.0000000000000000000, 0.0000000000000000000, 0.0000000000000000000 ) ) ;
#249 = SURFACE_SIDE_STYLE ('',( #77 ) ) ;
#250 = EDGE_LOOP ( 'NONE', ( #41, #258, #145, #19 ) ) ;
#251 = FILL_AREA_STYLE_COLOUR ( '', #200 ) ;
#252 = EDGE_LOOP ( 'NONE', ( #158, #58 ) ) ;
#253 = ORIENTED_EDGE ( 'NONE', *, *, #199, .T. ) ;
#254 = PRESENTATION_STYLE_ASSIGNMENT (( #188 ) ) ;
#255 = FACE_OUTER_BOUND ( 'NONE', #257, .T. ) ;
#256 =( GEOMETRIC_REPRESENTATION_CONTEXT ( 3 ) GLOBAL_UNCERTAINTY_ASSIGNED_CONTEXT ( ( #262 ) ) GLOBAL_UNIT_ASSIGNED_CONTEXT ( ( #187, #180, #167 ) ) REPRESENTATION_CONTEXT ( 'NONE', 'WORKASPACE' ) );
#257 = EDGE_LOOP ( 'NONE', ( #64, #88, #204, #18 ) ) ;
#258 = ORIENTED_EDGE ( 'NONE', *, *, #72, .T. ) ;
#259 = DIRECTION ( 'NONE',  ( 0.0000000000000000000, 1.000000000000000000, 0.0000000000000000000 ) ) ;
#260 = ORIENTED_EDGE ( 'NONE', *, *, #56, .F. ) ;
#261 = LINE ( 'NONE', #212, #90 ) ;
#262 = UNCERTAINTY_MEASURE_WITH_UNIT (LENGTH_MEASURE( 1.000000000000000100E-005 ), #187, 'distance_accuracy_value', 'NONE');
#263 =( NAMED_UNIT ( * ) SI_UNIT ( $, .STERADIAN. ) SOLID_ANGLE_UNIT ( ) );
#264 = ORIENTED_EDGE ( 'NONE', *, *, #149, .T. ) ;
#265 =( NAMED_UNIT ( * ) PLANE_ANGLE_UNIT ( ) SI_UNIT ( $, .RADIAN. ) );
#266 = PLANE ( 'NONE',  #272 ) ;
#267 = VERTEX_POINT ( 'NONE', #95 ) ;
#268 = DIRECTION ( 'NONE',  ( -1.000000000000000000, -1.224606353822377300E-016, 0.0000000000000000000 ) ) ;
#269 = VECTOR ( 'NONE', #123, 1000.000000000000000 ) ;
#270 = CARTESIAN_POINT ( 'NONE',  ( 0.0000000000000000000, 0.0000000000000000000, 0.0000000000000000000 ) ) ;
#271 = CARTESIAN_POINT ( 'NONE',  ( 0.0000000000000000000, 32.00000000000000000, 8.000000000000000000 ) ) ;
#272 = AXIS2_PLACEMENT_3D ( 'NONE', #163, #140, #186 ) ;
#273 =( LENGTH_UNIT ( ) NAMED_UNIT ( * ) SI_UNIT ( .MILLI., .METRE. ) );
#274 = ADVANCED_FACE ( 'NONE', ( #84 ), #266, .F. ) ;
#275 = ORIENTED_EDGE ( 'NONE', *, *, #98, .T. ) ;
#276 = CIRCLE ( 'NONE', #132, 3.300000000000004300 ) ;
ENDSEC;
END-ISO-10303-21;
