ISO-10303-21;
HEADER;
FILE_DESCRIPTION (( 'STEP AP214' ),
    '1' );
FILE_NAME ('096p0302506m8.STEP',
    '2014-08-18T12:57:56',
    ( '' ),
    ( '' ),
    'SwSTEP 2.0',
    'SolidWorks 2014',
    '' );
FILE_SCHEMA (( 'AUTOMOTIVE_DESIGN' ));
ENDSEC;

DATA;
#1 = CARTESIAN_POINT ( 'NONE',  ( 12.49999999999999600, 14.99999999999999800, 6.000000000000000000 ) ) ;
#2 = ADVANCED_FACE ( 'NONE', ( #43 ), #89, .F. ) ;
#3 = PRODUCT_DEFINITION_FORMATION_WITH_SPECIFIED_SOURCE ( 'ANY', '', #157, .NOT_KNOWN. ) ;
#4 = CARTESIAN_POINT ( 'NONE',  ( 25.00000000000000000, 29.99999999999999600, 6.000000000000000000 ) ) ;
#5 = VECTOR ( 'NONE', #131, 1000.000000000000000 ) ;
#6 = CARTESIAN_POINT ( 'NONE',  ( 0.0000000000000000000, 30.00000000000000000, 0.0000000000000000000 ) ) ;
#7 = ORIENTED_EDGE ( 'NONE', *, *, #8, .F. ) ;
#8 = EDGE_CURVE ( 'NONE', #135, #186, #206, .T. ) ;
#9 = DIRECTION ( 'NONE',  ( 0.0000000000000000000, 0.0000000000000000000, -1.000000000000000000 ) ) ;
#10 =( NAMED_UNIT ( * ) SI_UNIT ( $, .STERADIAN. ) SOLID_ANGLE_UNIT ( ) );
#11 = CARTESIAN_POINT ( 'NONE',  ( 9.199999999999995700, 14.99999999999999800, 6.000000000000000000 ) ) ;
#12 = DIRECTION ( 'NONE',  ( -1.000000000000000000, 0.0000000000000000000, 0.0000000000000000000 ) ) ;
#13 = ORIENTED_EDGE ( 'NONE', *, *, #231, .T. ) ;
#14 = SURFACE_STYLE_USAGE ( .BOTH. , #212 ) ;
#15 = DIRECTION ( 'NONE',  ( 1.000000000000000000, 0.0000000000000000000, 0.0000000000000000000 ) ) ;
#16 = PLANE ( 'NONE',  #275 ) ;
#17 = APPLICATION_PROTOCOL_DEFINITION ( 'draft international standard', 'automotive_design', 1998, #115 ) ;
#18 = DIRECTION ( 'NONE',  ( -0.0000000000000000000, -0.0000000000000000000, -1.000000000000000000 ) ) ;
#19 = UNCERTAINTY_MEASURE_WITH_UNIT (LENGTH_MEASURE( 1.000000000000000100E-005 ), #132, 'distance_accuracy_value', 'NONE');
#20 = CARTESIAN_POINT ( 'NONE',  ( 25.00000000000000000, 3.061515884555943100E-015, 6.000000000000000000 ) ) ;
#21 = PRODUCT_RELATED_PRODUCT_CATEGORY ( 'part', '', ( #157 ) ) ;
#22 = CARTESIAN_POINT ( 'NONE',  ( 0.0000000000000000000, 0.0000000000000000000, 0.0000000000000000000 ) ) ;
#23 = CARTESIAN_POINT ( 'NONE',  ( 0.0000000000000000000, 0.0000000000000000000, 6.000000000000000000 ) ) ;
#24 = EDGE_CURVE ( 'NONE', #234, #186, #33, .T. ) ;
#25 = DIRECTION ( 'NONE',  ( 0.0000000000000000000, 1.000000000000000000, 0.0000000000000000000 ) ) ;
#26 = FACE_BOUND ( 'NONE', #141, .T. ) ;
#27 = CARTESIAN_POINT ( 'NONE',  ( 25.00000000000000000, 3.061515884555943100E-015, 6.000000000000000000 ) ) ;
#28 = EDGE_LOOP ( 'NONE', ( #248, #180, #55, #136 ) ) ;
#29 = LINE ( 'NONE', #27, #253 ) ;
#30 = CARTESIAN_POINT ( 'NONE',  ( 0.0000000000000000000, 0.0000000000000000000, 6.000000000000000000 ) ) ;
#31 = CARTESIAN_POINT ( 'NONE',  ( 0.0000000000000000000, 30.00000000000000000, 6.000000000000000000 ) ) ;
#32 = DIRECTION ( 'NONE',  ( -1.000000000000000000, 1.387778780781445700E-016, -0.0000000000000000000 ) ) ;
#33 = CIRCLE ( 'NONE', #137, 3.300000000000000700 ) ;
#34 = DIRECTION ( 'NONE',  ( -1.000000000000000000, -1.224606353822377300E-016, 0.0000000000000000000 ) ) ;
#35 = FACE_OUTER_BOUND ( 'NONE', #128, .T. ) ;
#36 = VECTOR ( 'NONE', #18, 1000.000000000000000 ) ;
#37 =( NAMED_UNIT ( * ) PLANE_ANGLE_UNIT ( ) SI_UNIT ( $, .RADIAN. ) );
#38 = DIRECTION ( 'NONE',  ( -1.224606353822377300E-016, 1.000000000000000000, 0.0000000000000000000 ) ) ;
#39 = MANIFOLD_SOLID_BREP ( 'Basis-Linear austragen', #217 ) ;
#40 = ORIENTED_EDGE ( 'NONE', *, *, #24, .T. ) ;
#41 = FACE_OUTER_BOUND ( 'NONE', #138, .T. ) ;
#42 = DIRECTION ( 'NONE',  ( 1.000000000000000000, 0.0000000000000000000, 0.0000000000000000000 ) ) ;
#43 = FACE_OUTER_BOUND ( 'NONE', #165, .T. ) ;
#44 = CARTESIAN_POINT ( 'NONE',  ( 0.0000000000000000000, 0.0000000000000000000, 6.000000000000000000 ) ) ;
#45 = AXIS2_PLACEMENT_3D ( 'NONE', #87, #193, #194 ) ;
#46 = CARTESIAN_POINT ( 'NONE',  ( 0.0000000000000000000, 0.0000000000000000000, 0.0000000000000000000 ) ) ;
#47 = ORIENTED_EDGE ( 'NONE', *, *, #231, .F. ) ;
#48 = EDGE_CURVE ( 'NONE', #65, #117, #233, .T. ) ;
#49 = VECTOR ( 'NONE', #235, 1000.000000000000000 ) ;
#50 = DIRECTION ( 'NONE',  ( 1.000000000000000000, 1.224606353822377300E-016, 0.0000000000000000000 ) ) ;
#51 = PRESENTATION_STYLE_ASSIGNMENT (( #14 ) ) ;
#52 = CARTESIAN_POINT ( 'NONE',  ( 0.0000000000000000000, 30.00000000000000000, 0.0000000000000000000 ) ) ;
#53 = VERTEX_POINT ( 'NONE', #58 ) ;
#54 = PLANE ( 'NONE',  #247 ) ;
#55 = ORIENTED_EDGE ( 'NONE', *, *, #163, .F. ) ;
#56 = CARTESIAN_POINT ( 'NONE',  ( 0.0000000000000000000, 30.00000000000000000, 6.000000000000000000 ) ) ;
#57 = FACE_OUTER_BOUND ( 'NONE', #153, .T. ) ;
#58 = CARTESIAN_POINT ( 'NONE',  ( 25.00000000000000000, 3.061515884555943100E-015, 6.000000000000000000 ) ) ;
#59 = DIRECTION ( 'NONE',  ( -0.0000000000000000000, -1.000000000000000000, -0.0000000000000000000 ) ) ;
#60 = UNCERTAINTY_MEASURE_WITH_UNIT (LENGTH_MEASURE( 1.000000000000000100E-005 ), #105, 'distance_accuracy_value', 'NONE');
#61 = AXIS2_PLACEMENT_3D ( 'NONE', #260, #261, #263 ) ;
#62 =( NAMED_UNIT ( * ) SI_UNIT ( $, .STERADIAN. ) SOLID_ANGLE_UNIT ( ) );
#63 = LINE ( 'NONE', #255, #146 ) ;
#64 =( NAMED_UNIT ( * ) PLANE_ANGLE_UNIT ( ) SI_UNIT ( $, .RADIAN. ) );
#65 = VERTEX_POINT ( 'NONE', #56 ) ;
#66 = EDGE_CURVE ( 'NONE', #117, #53, #268, .T. ) ;
#67 =( LENGTH_UNIT ( ) NAMED_UNIT ( * ) SI_UNIT ( .MILLI., .METRE. ) );
#68 = SURFACE_STYLE_USAGE ( .BOTH. , #71 ) ;
#69 = DIRECTION ( 'NONE',  ( -0.0000000000000000000, -1.000000000000000000, -0.0000000000000000000 ) ) ;
#70 = PRODUCT_DEFINITION_SHAPE ( 'NONE', 'NONE',  #274 ) ;
#71 = SURFACE_SIDE_STYLE ('',( #106 ) ) ;
#72 = ORIENTED_EDGE ( 'NONE', *, *, #134, .T. ) ;
#73 = ORIENTED_EDGE ( 'NONE', *, *, #24, .F. ) ;
#74 = LINE ( 'NONE', #175, #273 ) ;
#75 = FILL_AREA_STYLE ('',( #96 ) ) ;
#76 = DIRECTION ( 'NONE',  ( 1.000000000000000000, 0.0000000000000000000, 0.0000000000000000000 ) ) ;
#77 = DIRECTION ( 'NONE',  ( 0.0000000000000000000, 0.0000000000000000000, 1.000000000000000000 ) ) ;
#78 = VECTOR ( 'NONE', #59, 1000.000000000000000 ) ;
#79 = ORIENTED_EDGE ( 'NONE', *, *, #66, .F. ) ;
#80 = CARTESIAN_POINT ( 'NONE',  ( 12.49999999999999600, 14.99999999999999800, 0.0000000000000000000 ) ) ;
#81 = AXIS2_PLACEMENT_3D ( 'NONE', #199, #187, #204 ) ;
#82 = ORIENTED_EDGE ( 'NONE', *, *, #184, .T. ) ;
#83 = CARTESIAN_POINT ( 'NONE',  ( 0.0000000000000000000, 0.0000000000000000000, 6.000000000000000000 ) ) ;
#84 = ADVANCED_FACE ( 'NONE', ( #104 ), #54, .F. ) ;
#85 = EDGE_CURVE ( 'NONE', #53, #129, #29, .T. ) ;
#86 = ORIENTED_EDGE ( 'NONE', *, *, #8, .T. ) ;
#87 = CARTESIAN_POINT ( 'NONE',  ( 0.0000000000000000000, 0.0000000000000000000, 6.000000000000000000 ) ) ;
#88 = CARTESIAN_POINT ( 'NONE',  ( 0.0000000000000000000, 0.0000000000000000000, 6.000000000000000000 ) ) ;
#89 = PLANE ( 'NONE',  #151 ) ;
#90 = COLOUR_RGB ( '',1.000000000000000000, 1.000000000000000000, 1.000000000000000000 ) ;
#91 = DIRECTION ( 'NONE',  ( 0.0000000000000000000, 0.0000000000000000000, 1.000000000000000000 ) ) ;
#92 = SHAPE_DEFINITION_REPRESENTATION ( #70, #198 ) ;
#93 = ORIENTED_EDGE ( 'NONE', *, *, #203, .F. ) ;
#94 = CARTESIAN_POINT ( 'NONE',  ( 0.0000000000000000000, 30.00000000000000000, 6.000000000000000000 ) ) ;
#95 = ORIENTED_EDGE ( 'NONE', *, *, #48, .T. ) ;
#96 = FILL_AREA_STYLE_COLOUR ( '', #114 ) ;
#97 = AXIS2_PLACEMENT_3D ( 'NONE', #240, #250, #254 ) ;
#98 = DIRECTION ( 'NONE',  ( -1.387778780781445400E-016, -1.000000000000000000, 0.0000000000000000000 ) ) ;
#99 = EDGE_CURVE ( 'NONE', #129, #65, #221, .T. ) ;
#100 = LINE ( 'NONE', #6, #49 ) ;
#101 = FILL_AREA_STYLE ('',( #256 ) ) ;
#102 = VERTEX_POINT ( 'NONE', #52 ) ;
#103 = DIRECTION ( 'NONE',  ( -0.0000000000000000000, -0.0000000000000000000, -1.000000000000000000 ) ) ;
#104 = FACE_OUTER_BOUND ( 'NONE', #123, .T. ) ;
#105 =( LENGTH_UNIT ( ) NAMED_UNIT ( * ) SI_UNIT ( .MILLI., .METRE. ) );
#106 = SURFACE_STYLE_FILL_AREA ( #75 ) ;
#107 = ORIENTED_EDGE ( 'NONE', *, *, #112, .T. ) ;
#108 = ADVANCED_FACE ( 'NONE', ( #41 ), #16, .F. ) ;
#109 = AXIS2_PLACEMENT_3D ( 'NONE', #226, #225, #195 ) ;
#110 = ORIENTED_EDGE ( 'NONE', *, *, #48, .F. ) ;
#111 = EDGE_CURVE ( 'NONE', #135, #116, #171, .T. ) ;
#112 = EDGE_CURVE ( 'NONE', #129, #238, #121, .T. ) ;
#113 = APPLICATION_CONTEXT ( 'automotive_design' ) ;
#114 = COLOUR_RGB ( '',1.000000000000000000, 1.000000000000000000, 1.000000000000000000 ) ;
#115 = APPLICATION_CONTEXT ( 'automotive_design' ) ;
#116 = VERTEX_POINT ( 'NONE', #11 ) ;
#117 = VERTEX_POINT ( 'NONE', #30 ) ;
#118 =( GEOMETRIC_REPRESENTATION_CONTEXT ( 3 ) GLOBAL_UNCERTAINTY_ASSIGNED_CONTEXT ( ( #19 ) ) GLOBAL_UNIT_ASSIGNED_CONTEXT ( ( #132, #191, #209 ) ) REPRESENTATION_CONTEXT ( 'NONE', 'WORKASPACE' ) );
#119 = ORIENTED_EDGE ( 'NONE', *, *, #112, .F. ) ;
#120 = ORIENTED_EDGE ( 'NONE', *, *, #174, .T. ) ;
#121 = LINE ( 'NONE', #4, #36 ) ;
#122 = EDGE_CURVE ( 'NONE', #102, #228, #257, .T. ) ;
#123 = EDGE_LOOP ( 'NONE', ( #120, #208, #79, #160 ) ) ;
#124 = ORIENTED_EDGE ( 'NONE', *, *, #85, .F. ) ;
#125 = VECTOR ( 'NONE', #213, 1000.000000000000000 ) ;
#126 = CIRCLE ( 'NONE', #61, 3.300000000000000700 ) ;
#127 = CYLINDRICAL_SURFACE ( 'NONE', #145, 3.300000000000000700 ) ;
#128 = EDGE_LOOP ( 'NONE', ( #7, #252, #190, #251 ) ) ;
#129 = VERTEX_POINT ( 'NONE', #227 ) ;
#130 = CARTESIAN_POINT ( 'NONE',  ( 15.79999999999999900, 14.99999999999999800, 6.000000000000000000 ) ) ;
#131 = DIRECTION ( 'NONE',  ( -0.0000000000000000000, -0.0000000000000000000, -1.000000000000000000 ) ) ;
#132 =( LENGTH_UNIT ( ) NAMED_UNIT ( * ) SI_UNIT ( .MILLI., .METRE. ) );
#133 = SURFACE_STYLE_FILL_AREA ( #101 ) ;
#134 = EDGE_CURVE ( 'NONE', #238, #102, #100, .T. ) ;
#135 = VERTEX_POINT ( 'NONE', #249 ) ;
#136 = ORIENTED_EDGE ( 'NONE', *, *, #174, .F. ) ;
#137 = AXIS2_PLACEMENT_3D ( 'NONE', #80, #77, #76 ) ;
#138 = EDGE_LOOP ( 'NONE', ( #223, #219, #110, #13 ) ) ;
#139 = UNCERTAINTY_MEASURE_WITH_UNIT (LENGTH_MEASURE( 1.000000000000000100E-005 ), #67, 'distance_accuracy_value', 'NONE');
#140 = CYLINDRICAL_SURFACE ( 'NONE', #109, 3.300000000000000700 ) ;
#141 = EDGE_LOOP ( 'NONE', ( #93, #166 ) ) ;
#142 = ORIENTED_EDGE ( 'NONE', *, *, #163, .T. ) ;
#143 = DIRECTION ( 'NONE',  ( 1.000000000000000000, -1.387778780781445400E-016, 0.0000000000000000000 ) ) ;
#144 = LINE ( 'NONE', #211, #125 ) ;
#145 = AXIS2_PLACEMENT_3D ( 'NONE', #242, #271, #230 ) ;
#146 = VECTOR ( 'NONE', #269, 1000.000000000000000 ) ;
#147 = EDGE_CURVE ( 'NONE', #116, #234, #74, .T. ) ;
#148 = FACE_BOUND ( 'NONE', #246, .T. ) ;
#149 = CIRCLE ( 'NONE', #97, 3.300000000000000700 ) ;
#150 = VECTOR ( 'NONE', #32, 1000.000000000000000 ) ;
#151 = AXIS2_PLACEMENT_3D ( 'NONE', #94, #98, #143 ) ;
#152 = VECTOR ( 'NONE', #103, 1000.000000000000000 ) ;
#153 = EDGE_LOOP ( 'NONE', ( #142, #119, #124, #176 ) ) ;
#154 = VECTOR ( 'NONE', #69, 1000.000000000000000 ) ;
#155 = VECTOR ( 'NONE', #50, 1000.000000000000000 ) ;
#156 = LINE ( 'NONE', #207, #276 ) ;
#157 = PRODUCT ( '096p0302506m8', '096p0302506m8', '', ( #236 ) ) ;
#158 = ADVANCED_FACE ( 'NONE', ( #161, #26 ), #192, .F. ) ;
#159 = AXIS2_PLACEMENT_3D ( 'NONE', #20, #12, #189 ) ;
#160 = ORIENTED_EDGE ( 'NONE', *, *, #220, .T. ) ;
#161 = FACE_OUTER_BOUND ( 'NONE', #218, .T. ) ;
#162 = ADVANCED_FACE ( 'NONE', ( #201, #148 ), #202, .T. ) ;
#163 = EDGE_CURVE ( 'NONE', #170, #238, #144, .T. ) ;
#164 = STYLED_ITEM ( 'NONE', ( #214 ), #39 ) ;
#165 = EDGE_LOOP ( 'NONE', ( #72, #47, #210, #107 ) ) ;
#166 = ORIENTED_EDGE ( 'NONE', *, *, #111, .F. ) ;
#167 = DIRECTION ( 'NONE',  ( 0.0000000000000000000, 0.0000000000000000000, 1.000000000000000000 ) ) ;
#168 = CARTESIAN_POINT ( 'NONE',  ( 25.00000000000000000, 3.061515884555943100E-015, 6.000000000000000000 ) ) ;
#169 = VECTOR ( 'NONE', #232, 1000.000000000000000 ) ;
#170 = VERTEX_POINT ( 'NONE', #215 ) ;
#171 = CIRCLE ( 'NONE', #262, 3.300000000000000700 ) ;
#172 = PLANE ( 'NONE',  #159 ) ;
#173 = APPLICATION_PROTOCOL_DEFINITION ( 'draft international standard', 'automotive_design', 1998, #113 ) ;
#174 = EDGE_CURVE ( 'NONE', #228, #170, #156, .T. ) ;
#175 = CARTESIAN_POINT ( 'NONE',  ( 9.199999999999995700, 14.99999999999999800, 6.000000000000000000 ) ) ;
#176 = ORIENTED_EDGE ( 'NONE', *, *, #243, .T. ) ;
#177 = PRESENTATION_LAYER_ASSIGNMENT (  '', '', ( #164 ) ) ;
#178 = ORIENTED_EDGE ( 'NONE', *, *, #99, .T. ) ;
#179 = ADVANCED_FACE ( 'NONE', ( #224 ), #140, .F. ) ;
#180 = ORIENTED_EDGE ( 'NONE', *, *, #134, .F. ) ;
#181 = ORIENTED_EDGE ( 'NONE', *, *, #203, .T. ) ;
#182 = STYLED_ITEM ( 'NONE', ( #51 ), #198 ) ;
#183 = DIRECTION ( 'NONE',  ( 1.000000000000000000, 0.0000000000000000000, 0.0000000000000000000 ) ) ;
#184 = EDGE_CURVE ( 'NONE', #186, #234, #149, .T. ) ;
#185 = DIRECTION ( 'NONE',  ( -0.0000000000000000000, -0.0000000000000000000, -1.000000000000000000 ) ) ;
#186 = VERTEX_POINT ( 'NONE', #270 ) ;
#187 = DIRECTION ( 'NONE',  ( 0.0000000000000000000, 0.0000000000000000000, -1.000000000000000000 ) ) ;
#188 = MECHANICAL_DESIGN_GEOMETRIC_PRESENTATION_REPRESENTATION (  '', ( #164 ), #205 ) ;
#189 = DIRECTION ( 'NONE',  ( 0.0000000000000000000, 0.0000000000000000000, 1.000000000000000000 ) ) ;
#190 = ORIENTED_EDGE ( 'NONE', *, *, #147, .T. ) ;
#191 =( NAMED_UNIT ( * ) PLANE_ANGLE_UNIT ( ) SI_UNIT ( $, .RADIAN. ) );
#192 = PLANE ( 'NONE',  #45 ) ;
#193 = DIRECTION ( 'NONE',  ( 0.0000000000000000000, 0.0000000000000000000, -1.000000000000000000 ) ) ;
#194 = DIRECTION ( 'NONE',  ( -1.000000000000000000, 0.0000000000000000000, -0.0000000000000000000 ) ) ;
#195 = DIRECTION ( 'NONE',  ( -1.000000000000000000, 0.0000000000000000000, 0.0000000000000000000 ) ) ;
#196 = EDGE_LOOP ( 'NONE', ( #181, #86, #73, #197 ) ) ;
#197 = ORIENTED_EDGE ( 'NONE', *, *, #147, .F. ) ;
#198 = ADVANCED_BREP_SHAPE_REPRESENTATION ( '096p0302506m8', ( #39, #258 ), #118 ) ;
#199 = CARTESIAN_POINT ( 'NONE',  ( 0.0000000000000000000, 0.0000000000000000000, 0.0000000000000000000 ) ) ;
#200 = PRESENTATION_LAYER_ASSIGNMENT (  '', '', ( #182 ) ) ;
#201 = FACE_OUTER_BOUND ( 'NONE', #28, .T. ) ;
#202 = PLANE ( 'NONE',  #81 ) ;
#203 = EDGE_CURVE ( 'NONE', #116, #135, #126, .T. ) ;
#204 = DIRECTION ( 'NONE',  ( -1.000000000000000000, 0.0000000000000000000, -0.0000000000000000000 ) ) ;
#205 =( GEOMETRIC_REPRESENTATION_CONTEXT ( 3 ) GLOBAL_UNCERTAINTY_ASSIGNED_CONTEXT ( ( #139 ) ) GLOBAL_UNIT_ASSIGNED_CONTEXT ( ( #67, #64, #62 ) ) REPRESENTATION_CONTEXT ( 'NONE', 'WORKASPACE' ) );
#206 = LINE ( 'NONE', #130, #152 ) ;
#207 = CARTESIAN_POINT ( 'NONE',  ( 0.0000000000000000000, 0.0000000000000000000, 0.0000000000000000000 ) ) ;
#208 = ORIENTED_EDGE ( 'NONE', *, *, #243, .F. ) ;
#209 =( NAMED_UNIT ( * ) SI_UNIT ( $, .STERADIAN. ) SOLID_ANGLE_UNIT ( ) );
#210 = ORIENTED_EDGE ( 'NONE', *, *, #99, .F. ) ;
#211 = CARTESIAN_POINT ( 'NONE',  ( 25.00000000000000000, 3.061515884555943100E-015, 0.0000000000000000000 ) ) ;
#212 = SURFACE_SIDE_STYLE ('',( #133 ) ) ;
#213 = DIRECTION ( 'NONE',  ( 0.0000000000000000000, 1.000000000000000000, 0.0000000000000000000 ) ) ;
#214 = PRESENTATION_STYLE_ASSIGNMENT (( #68 ) ) ;
#215 = CARTESIAN_POINT ( 'NONE',  ( 25.00000000000000000, 3.061515884555943100E-015, 0.0000000000000000000 ) ) ;
#216 = MECHANICAL_DESIGN_GEOMETRIC_PRESENTATION_REPRESENTATION (  '', ( #182 ), #229 ) ;
#217 = CLOSED_SHELL ( 'NONE', ( #179, #158, #162, #108, #84, #265, #2, #237 ) ) ;
#218 = EDGE_LOOP ( 'NONE', ( #95, #272, #266, #178 ) ) ;
#219 = ORIENTED_EDGE ( 'NONE', *, *, #220, .F. ) ;
#220 = EDGE_CURVE ( 'NONE', #117, #228, #239, .T. ) ;
#221 = LINE ( 'NONE', #31, #150 ) ;
#222 = DIRECTION ( 'NONE',  ( 1.000000000000000000, 1.224606353822377300E-016, 0.0000000000000000000 ) ) ;
#223 = ORIENTED_EDGE ( 'NONE', *, *, #122, .T. ) ;
#224 = FACE_OUTER_BOUND ( 'NONE', #196, .T. ) ;
#225 = DIRECTION ( 'NONE',  ( -0.0000000000000000000, -0.0000000000000000000, -1.000000000000000000 ) ) ;
#226 = CARTESIAN_POINT ( 'NONE',  ( 12.49999999999999600, 14.99999999999999800, 6.000000000000000000 ) ) ;
#227 = CARTESIAN_POINT ( 'NONE',  ( 25.00000000000000000, 29.99999999999999600, 6.000000000000000000 ) ) ;
#228 = VERTEX_POINT ( 'NONE', #264 ) ;
#229 =( GEOMETRIC_REPRESENTATION_CONTEXT ( 3 ) GLOBAL_UNCERTAINTY_ASSIGNED_CONTEXT ( ( #60 ) ) GLOBAL_UNIT_ASSIGNED_CONTEXT ( ( #105, #37, #10 ) ) REPRESENTATION_CONTEXT ( 'NONE', 'WORKASPACE' ) );
#230 = DIRECTION ( 'NONE',  ( -1.000000000000000000, 0.0000000000000000000, 0.0000000000000000000 ) ) ;
#231 = EDGE_CURVE ( 'NONE', #65, #102, #63, .T. ) ;
#232 = DIRECTION ( 'NONE',  ( -0.0000000000000000000, -0.0000000000000000000, -1.000000000000000000 ) ) ;
#233 = LINE ( 'NONE', #88, #78 ) ;
#234 = VERTEX_POINT ( 'NONE', #267 ) ;
#235 = DIRECTION ( 'NONE',  ( -1.000000000000000000, 1.387778780781445700E-016, -0.0000000000000000000 ) ) ;
#236 = PRODUCT_CONTEXT ( 'NONE', #115, 'mechanical' ) ;
#237 = ADVANCED_FACE ( 'NONE', ( #35 ), #127, .F. ) ;
#238 = VERTEX_POINT ( 'NONE', #245 ) ;
#239 = LINE ( 'NONE', #259, #169 ) ;
#240 = CARTESIAN_POINT ( 'NONE',  ( 12.49999999999999600, 14.99999999999999800, 0.0000000000000000000 ) ) ;
#241 = LINE ( 'NONE', #168, #5 ) ;
#242 = CARTESIAN_POINT ( 'NONE',  ( 12.49999999999999600, 14.99999999999999800, 6.000000000000000000 ) ) ;
#243 = EDGE_CURVE ( 'NONE', #53, #170, #241, .T. ) ;
#244 = PRODUCT_DEFINITION_CONTEXT ( 'detailed design', #113, 'design' ) ;
#245 = CARTESIAN_POINT ( 'NONE',  ( 25.00000000000000000, 29.99999999999999600, 0.0000000000000000000 ) ) ;
#246 = EDGE_LOOP ( 'NONE', ( #40, #82 ) ) ;
#247 = AXIS2_PLACEMENT_3D ( 'NONE', #44, #38, #34 ) ;
#248 = ORIENTED_EDGE ( 'NONE', *, *, #122, .F. ) ;
#249 = CARTESIAN_POINT ( 'NONE',  ( 15.79999999999999900, 14.99999999999999800, 6.000000000000000000 ) ) ;
#250 = DIRECTION ( 'NONE',  ( 0.0000000000000000000, 0.0000000000000000000, 1.000000000000000000 ) ) ;
#251 = ORIENTED_EDGE ( 'NONE', *, *, #184, .F. ) ;
#252 = ORIENTED_EDGE ( 'NONE', *, *, #111, .T. ) ;
#253 = VECTOR ( 'NONE', #25, 1000.000000000000000 ) ;
#254 = DIRECTION ( 'NONE',  ( 1.000000000000000000, 0.0000000000000000000, 0.0000000000000000000 ) ) ;
#255 = CARTESIAN_POINT ( 'NONE',  ( 0.0000000000000000000, 30.00000000000000000, 6.000000000000000000 ) ) ;
#256 = FILL_AREA_STYLE_COLOUR ( '', #90 ) ;
#257 = LINE ( 'NONE', #46, #154 ) ;
#258 = AXIS2_PLACEMENT_3D ( 'NONE', #22, #167, #183 ) ;
#259 = CARTESIAN_POINT ( 'NONE',  ( 0.0000000000000000000, 0.0000000000000000000, 6.000000000000000000 ) ) ;
#260 = CARTESIAN_POINT ( 'NONE',  ( 12.49999999999999600, 14.99999999999999800, 6.000000000000000000 ) ) ;
#261 = DIRECTION ( 'NONE',  ( 0.0000000000000000000, 0.0000000000000000000, 1.000000000000000000 ) ) ;
#262 = AXIS2_PLACEMENT_3D ( 'NONE', #1, #91, #42 ) ;
#263 = DIRECTION ( 'NONE',  ( 1.000000000000000000, 0.0000000000000000000, 0.0000000000000000000 ) ) ;
#264 = CARTESIAN_POINT ( 'NONE',  ( 0.0000000000000000000, 0.0000000000000000000, 0.0000000000000000000 ) ) ;
#265 = ADVANCED_FACE ( 'NONE', ( #57 ), #172, .F. ) ;
#266 = ORIENTED_EDGE ( 'NONE', *, *, #85, .T. ) ;
#267 = CARTESIAN_POINT ( 'NONE',  ( 9.199999999999995700, 14.99999999999999800, 0.0000000000000000000 ) ) ;
#268 = LINE ( 'NONE', #83, #155 ) ;
#269 = DIRECTION ( 'NONE',  ( -0.0000000000000000000, -0.0000000000000000000, -1.000000000000000000 ) ) ;
#270 = CARTESIAN_POINT ( 'NONE',  ( 15.79999999999999900, 14.99999999999999800, 0.0000000000000000000 ) ) ;
#271 = DIRECTION ( 'NONE',  ( -0.0000000000000000000, -0.0000000000000000000, -1.000000000000000000 ) ) ;
#272 = ORIENTED_EDGE ( 'NONE', *, *, #66, .T. ) ;
#273 = VECTOR ( 'NONE', #185, 1000.000000000000000 ) ;
#274 = PRODUCT_DEFINITION ( 'UNKNOWN', '', #3, #244 ) ;
#275 = AXIS2_PLACEMENT_3D ( 'NONE', #23, #15, #9 ) ;
#276 = VECTOR ( 'NONE', #222, 1000.000000000000000 ) ;
ENDSEC;
END-ISO-10303-21;
