ISO-10303-21;
HEADER;
FILE_DESCRIPTION (( 'STEP AP214' ),
    '1' );
FILE_NAME ('096p0302505m8.STEP',
    '2014-08-18T12:56:43',
    ( '' ),
    ( '' ),
    'SwSTEP 2.0',
    'SolidWorks 2014',
    '' );
FILE_SCHEMA (( 'AUTOMOTIVE_DESIGN' ));
ENDSEC;

DATA;
#1 = DIRECTION ( 'NONE',  ( 0.0000000000000000000, 0.0000000000000000000, 1.000000000000000000 ) ) ;
#2 = DIRECTION ( 'NONE',  ( 1.000000000000000000, 0.0000000000000000000, 0.0000000000000000000 ) ) ;
#3 = AXIS2_PLACEMENT_3D ( 'NONE', #176, #130, #133 ) ;
#4 = ORIENTED_EDGE ( 'NONE', *, *, #226, .F. ) ;
#5 = UNCERTAINTY_MEASURE_WITH_UNIT (LENGTH_MEASURE( 1.000000000000000100E-005 ), #87, 'distance_accuracy_value', 'NONE');
#6 =( NAMED_UNIT ( * ) PLANE_ANGLE_UNIT ( ) SI_UNIT ( $, .RADIAN. ) );
#7 =( GEOMETRIC_REPRESENTATION_CONTEXT ( 3 ) GLOBAL_UNCERTAINTY_ASSIGNED_CONTEXT ( ( #5 ) ) GLOBAL_UNIT_ASSIGNED_CONTEXT ( ( #87, #95, #93 ) ) REPRESENTATION_CONTEXT ( 'NONE', 'WORKASPACE' ) );
#8 = FACE_OUTER_BOUND ( 'NONE', #200, .T. ) ;
#9 = FILL_AREA_STYLE_COLOUR ( '', #25 ) ;
#10 = VECTOR ( 'NONE', #227, 1000.000000000000000 ) ;
#11 =( NAMED_UNIT ( * ) PLANE_ANGLE_UNIT ( ) SI_UNIT ( $, .RADIAN. ) );
#12 = DIRECTION ( 'NONE',  ( 1.000000000000000000, -1.387778780781445700E-016, 0.0000000000000000000 ) ) ;
#13 = VERTEX_POINT ( 'NONE', #186 ) ;
#14 = MECHANICAL_DESIGN_GEOMETRIC_PRESENTATION_REPRESENTATION (  '', ( #57 ), #7 ) ;
#15 = UNCERTAINTY_MEASURE_WITH_UNIT (LENGTH_MEASURE( 1.000000000000000100E-005 ), #201, 'distance_accuracy_value', 'NONE');
#16 = PLANE ( 'NONE',  #249 ) ;
#17 = CARTESIAN_POINT ( 'NONE',  ( 0.0000000000000000000, 30.00000000000000000, 5.000000000000000000 ) ) ;
#18 = ADVANCED_FACE ( 'NONE', ( #150 ), #39, .F. ) ;
#19 = SURFACE_SIDE_STYLE ('',( #208 ) ) ;
#20 = ORIENTED_EDGE ( 'NONE', *, *, #94, .F. ) ;
#21 =( NAMED_UNIT ( * ) SI_UNIT ( $, .STERADIAN. ) SOLID_ANGLE_UNIT ( ) );
#22 = EDGE_CURVE ( 'NONE', #86, #183, #61, .T. ) ;
#23 = EDGE_LOOP ( 'NONE', ( #144, #232 ) ) ;
#24 = PRESENTATION_LAYER_ASSIGNMENT (  '', '', ( #57 ) ) ;
#25 = COLOUR_RGB ( '',1.000000000000000000, 1.000000000000000000, 1.000000000000000000 ) ;
#26 = CARTESIAN_POINT ( 'NONE',  ( 12.49999999999999600, 14.99999999999999800, 0.0000000000000000000 ) ) ;
#27 = CARTESIAN_POINT ( 'NONE',  ( 0.0000000000000000000, 0.0000000000000000000, 5.000000000000000000 ) ) ;
#28 = DIRECTION ( 'NONE',  ( -1.224606353822377300E-016, 1.000000000000000000, 0.0000000000000000000 ) ) ;
#29 = CARTESIAN_POINT ( 'NONE',  ( 9.199999999999995700, 14.99999999999999800, 5.000000000000000000 ) ) ;
#30 = PRODUCT_RELATED_PRODUCT_CATEGORY ( 'part', '', ( #48 ) ) ;
#31 = SHAPE_DEFINITION_REPRESENTATION ( #74, #189 ) ;
#32 = FILL_AREA_STYLE ('',( #9 ) ) ;
#33 = APPLICATION_PROTOCOL_DEFINITION ( 'draft international standard', 'automotive_design', 1998, #49 ) ;
#34 = EDGE_LOOP ( 'NONE', ( #99, #152, #4, #151 ) ) ;
#35 = DIRECTION ( 'NONE',  ( 1.000000000000000000, 1.224606353822377300E-016, 0.0000000000000000000 ) ) ;
#36 = CARTESIAN_POINT ( 'NONE',  ( 25.00000000000000000, 29.99999999999999600, 5.000000000000000000 ) ) ;
#37 = LINE ( 'NONE', #29, #231 ) ;
#38 = DIRECTION ( 'NONE',  ( -1.000000000000000000, -1.224606353822377300E-016, 0.0000000000000000000 ) ) ;
#39 = CYLINDRICAL_SURFACE ( 'NONE', #213, 3.300000000000000700 ) ;
#40 = VERTEX_POINT ( 'NONE', #259 ) ;
#41 = EDGE_LOOP ( 'NONE', ( #219, #228 ) ) ;
#42 = DIRECTION ( 'NONE',  ( -1.387778780781445700E-016, -1.000000000000000000, 0.0000000000000000000 ) ) ;
#43 = ADVANCED_FACE ( 'NONE', ( #218, #214 ), #235, .T. ) ;
#44 = CARTESIAN_POINT ( 'NONE',  ( 0.0000000000000000000, 0.0000000000000000000, 5.000000000000000000 ) ) ;
#45 = CARTESIAN_POINT ( 'NONE',  ( 9.199999999999995700, 14.99999999999999800, 5.000000000000000000 ) ) ;
#46 = PRESENTATION_LAYER_ASSIGNMENT (  '', '', ( #52 ) ) ;
#47 = EDGE_LOOP ( 'NONE', ( #110, #203, #168, #264 ) ) ;
#48 = PRODUCT ( '096p0302505m8', '096p0302505m8', '', ( #104 ) ) ;
#49 = APPLICATION_CONTEXT ( 'automotive_design' ) ;
#50 = DIRECTION ( 'NONE',  ( -1.000000000000000000, 0.0000000000000000000, 0.0000000000000000000 ) ) ;
#51 = DIRECTION ( 'NONE',  ( -0.0000000000000000000, -0.0000000000000000000, -1.000000000000000000 ) ) ;
#52 = STYLED_ITEM ( 'NONE', ( #85 ), #225 ) ;
#53 = CARTESIAN_POINT ( 'NONE',  ( 0.0000000000000000000, 0.0000000000000000000, 5.000000000000000000 ) ) ;
#54 = FILL_AREA_STYLE ('',( #178 ) ) ;
#55 = DIRECTION ( 'NONE',  ( -0.0000000000000000000, -0.0000000000000000000, -1.000000000000000000 ) ) ;
#56 = CARTESIAN_POINT ( 'NONE',  ( 0.0000000000000000000, 0.0000000000000000000, 5.000000000000000000 ) ) ;
#57 = STYLED_ITEM ( 'NONE', ( #98 ), #189 ) ;
#58 = DIRECTION ( 'NONE',  ( -0.0000000000000000000, -0.0000000000000000000, -1.000000000000000000 ) ) ;
#59 = LINE ( 'NONE', #56, #217 ) ;
#60 = DIRECTION ( 'NONE',  ( 0.0000000000000000000, 0.0000000000000000000, -1.000000000000000000 ) ) ;
#61 = LINE ( 'NONE', #195, #251 ) ;
#62 = DIRECTION ( 'NONE',  ( -0.0000000000000000000, -1.000000000000000000, -0.0000000000000000000 ) ) ;
#63 = CARTESIAN_POINT ( 'NONE',  ( 25.00000000000000000, 3.061515884555943100E-015, 5.000000000000000000 ) ) ;
#64 = EDGE_CURVE ( 'NONE', #204, #86, #276, .T. ) ;
#65 = CARTESIAN_POINT ( 'NONE',  ( 25.00000000000000000, 3.061515884555943100E-015, 5.000000000000000000 ) ) ;
#66 = LINE ( 'NONE', #135, #132 ) ;
#67 = CARTESIAN_POINT ( 'NONE',  ( 15.79999999999999900, 14.99999999999999800, 0.0000000000000000000 ) ) ;
#68 = VECTOR ( 'NONE', #265, 1000.000000000000000 ) ;
#69 = SURFACE_SIDE_STYLE ('',( #162 ) ) ;
#70 = EDGE_CURVE ( 'NONE', #205, #188, #107, .T. ) ;
#71 = DIRECTION ( 'NONE',  ( 0.0000000000000000000, 0.0000000000000000000, -1.000000000000000000 ) ) ;
#72 = CARTESIAN_POINT ( 'NONE',  ( 15.79999999999999900, 14.99999999999999800, 5.000000000000000000 ) ) ;
#73 = FACE_OUTER_BOUND ( 'NONE', #78, .T. ) ;
#74 = PRODUCT_DEFINITION_SHAPE ( 'NONE', 'NONE',  #137 ) ;
#75 = CARTESIAN_POINT ( 'NONE',  ( 25.00000000000000000, 29.99999999999999600, 0.0000000000000000000 ) ) ;
#76 = CIRCLE ( 'NONE', #88, 3.300000000000000700 ) ;
#77 = DIRECTION ( 'NONE',  ( -0.0000000000000000000, -0.0000000000000000000, -1.000000000000000000 ) ) ;
#78 = EDGE_LOOP ( 'NONE', ( #164, #187, #163, #266 ) ) ;
#79 = CARTESIAN_POINT ( 'NONE',  ( 12.49999999999999600, 14.99999999999999800, 5.000000000000000000 ) ) ;
#80 = CLOSED_SHELL ( 'NONE', ( #18, #124, #43, #148, #222, #241, #165, #209 ) ) ;
#81 = SURFACE_STYLE_USAGE ( .BOTH. , #69 ) ;
#82 = DIRECTION ( 'NONE',  ( 1.000000000000000000, 0.0000000000000000000, 0.0000000000000000000 ) ) ;
#83 = PLANE ( 'NONE',  #143 ) ;
#84 = DIRECTION ( 'NONE',  ( -1.000000000000000000, 0.0000000000000000000, -0.0000000000000000000 ) ) ;
#85 = PRESENTATION_STYLE_ASSIGNMENT (( #100 ) ) ;
#86 = VERTEX_POINT ( 'NONE', #173 ) ;
#87 =( LENGTH_UNIT ( ) NAMED_UNIT ( * ) SI_UNIT ( .MILLI., .METRE. ) );
#88 = AXIS2_PLACEMENT_3D ( 'NONE', #118, #127, #138 ) ;
#89 = ORIENTED_EDGE ( 'NONE', *, *, #161, .F. ) ;
#90 = CARTESIAN_POINT ( 'NONE',  ( 0.0000000000000000000, 0.0000000000000000000, 5.000000000000000000 ) ) ;
#91 = DIRECTION ( 'NONE',  ( -0.0000000000000000000, -0.0000000000000000000, -1.000000000000000000 ) ) ;
#92 = FACE_OUTER_BOUND ( 'NONE', #34, .T. ) ;
#93 =( NAMED_UNIT ( * ) SI_UNIT ( $, .STERADIAN. ) SOLID_ANGLE_UNIT ( ) );
#94 = EDGE_CURVE ( 'NONE', #215, #40, #256, .T. ) ;
#95 =( NAMED_UNIT ( * ) PLANE_ANGLE_UNIT ( ) SI_UNIT ( $, .RADIAN. ) );
#96 = DIRECTION ( 'NONE',  ( 1.000000000000000000, 0.0000000000000000000, 0.0000000000000000000 ) ) ;
#97 = CARTESIAN_POINT ( 'NONE',  ( 25.00000000000000000, 3.061515884555943100E-015, 5.000000000000000000 ) ) ;
#98 = PRESENTATION_STYLE_ASSIGNMENT (( #81 ) ) ;
#99 = ORIENTED_EDGE ( 'NONE', *, *, #64, .T. ) ;
#100 = SURFACE_STYLE_USAGE ( .BOTH. , #19 ) ;
#101 = ORIENTED_EDGE ( 'NONE', *, *, #128, .T. ) ;
#102 = DIRECTION ( 'NONE',  ( 0.0000000000000000000, 0.0000000000000000000, 1.000000000000000000 ) ) ;
#103 = DIRECTION ( 'NONE',  ( 0.0000000000000000000, 1.000000000000000000, 0.0000000000000000000 ) ) ;
#104 = PRODUCT_CONTEXT ( 'NONE', #49, 'mechanical' ) ;
#105 = CYLINDRICAL_SURFACE ( 'NONE', #220, 3.300000000000000700 ) ;
#106 = CARTESIAN_POINT ( 'NONE',  ( 12.49999999999999600, 14.99999999999999800, 5.000000000000000000 ) ) ;
#107 = LINE ( 'NONE', #216, #10 ) ;
#108 =( GEOMETRIC_REPRESENTATION_CONTEXT ( 3 ) GLOBAL_UNCERTAINTY_ASSIGNED_CONTEXT ( ( #174 ) ) GLOBAL_UNIT_ASSIGNED_CONTEXT ( ( #255, #11, #230 ) ) REPRESENTATION_CONTEXT ( 'NONE', 'WORKASPACE' ) );
#109 = PLANE ( 'NONE',  #274 ) ;
#110 = ORIENTED_EDGE ( 'NONE', *, *, #159, .T. ) ;
#111 = CARTESIAN_POINT ( 'NONE',  ( 12.49999999999999600, 14.99999999999999800, 5.000000000000000000 ) ) ;
#112 = DIRECTION ( 'NONE',  ( 1.000000000000000000, 0.0000000000000000000, 0.0000000000000000000 ) ) ;
#113 = DIRECTION ( 'NONE',  ( 0.0000000000000000000, 0.0000000000000000000, 1.000000000000000000 ) ) ;
#114 = APPLICATION_CONTEXT ( 'automotive_design' ) ;
#115 = EDGE_CURVE ( 'NONE', #156, #183, #190, .T. ) ;
#116 = CARTESIAN_POINT ( 'NONE',  ( 0.0000000000000000000, 0.0000000000000000000, 0.0000000000000000000 ) ) ;
#117 = LINE ( 'NONE', #119, #270 ) ;
#118 = CARTESIAN_POINT ( 'NONE',  ( 12.49999999999999600, 14.99999999999999800, 5.000000000000000000 ) ) ;
#119 = CARTESIAN_POINT ( 'NONE',  ( 0.0000000000000000000, 30.00000000000000000, 5.000000000000000000 ) ) ;
#120 = AXIS2_PLACEMENT_3D ( 'NONE', #97, #145, #160 ) ;
#121 = EDGE_LOOP ( 'NONE', ( #129, #242, #141, #158 ) ) ;
#122 = CARTESIAN_POINT ( 'NONE',  ( 0.0000000000000000000, 30.00000000000000000, 5.000000000000000000 ) ) ;
#123 = CARTESIAN_POINT ( 'NONE',  ( 25.00000000000000000, 29.99999999999999600, 5.000000000000000000 ) ) ;
#124 = ADVANCED_FACE ( 'NONE', ( #272, #248 ), #140, .F. ) ;
#125 = CIRCLE ( 'NONE', #245, 3.300000000000000700 ) ;
#126 = DIRECTION ( 'NONE',  ( 1.000000000000000000, 1.224606353822377300E-016, 0.0000000000000000000 ) ) ;
#127 = DIRECTION ( 'NONE',  ( 0.0000000000000000000, 0.0000000000000000000, 1.000000000000000000 ) ) ;
#128 = EDGE_CURVE ( 'NONE', #175, #204, #66, .T. ) ;
#129 = ORIENTED_EDGE ( 'NONE', *, *, #184, .T. ) ;
#130 = DIRECTION ( 'NONE',  ( 0.0000000000000000000, 0.0000000000000000000, -1.000000000000000000 ) ) ;
#131 = EDGE_CURVE ( 'NONE', #234, #86, #117, .T. ) ;
#132 = VECTOR ( 'NONE', #103, 1000.000000000000000 ) ;
#133 = DIRECTION ( 'NONE',  ( -1.000000000000000000, 0.0000000000000000000, -0.0000000000000000000 ) ) ;
#134 = ORIENTED_EDGE ( 'NONE', *, *, #22, .T. ) ;
#135 = CARTESIAN_POINT ( 'NONE',  ( 25.00000000000000000, 3.061515884555943100E-015, 0.0000000000000000000 ) ) ;
#136 = EDGE_LOOP ( 'NONE', ( #260, #239, #229, #192 ) ) ;
#137 = PRODUCT_DEFINITION ( 'UNKNOWN', '', #261, #246 ) ;
#138 = DIRECTION ( 'NONE',  ( 1.000000000000000000, 0.0000000000000000000, 0.0000000000000000000 ) ) ;
#139 = FACE_OUTER_BOUND ( 'NONE', #273, .T. ) ;
#140 = PLANE ( 'NONE',  #3 ) ;
#141 = ORIENTED_EDGE ( 'NONE', *, *, #223, .F. ) ;
#142 = DIRECTION ( 'NONE',  ( -0.0000000000000000000, -0.0000000000000000000, -1.000000000000000000 ) ) ;
#143 = AXIS2_PLACEMENT_3D ( 'NONE', #27, #28, #38 ) ;
#144 = ORIENTED_EDGE ( 'NONE', *, *, #184, .F. ) ;
#145 = DIRECTION ( 'NONE',  ( -1.000000000000000000, 0.0000000000000000000, 0.0000000000000000000 ) ) ;
#146 = ORIENTED_EDGE ( 'NONE', *, *, #70, .F. ) ;
#147 = CARTESIAN_POINT ( 'NONE',  ( 12.49999999999999600, 14.99999999999999800, 0.0000000000000000000 ) ) ;
#149 = EDGE_CURVE ( 'NONE', #205, #175, #198, .T. ) ;
#148 = ADVANCED_FACE ( 'NONE', ( #8 ), #109, .F. ) ;
#150 = FACE_OUTER_BOUND ( 'NONE', #121, .T. ) ;
#151 = ORIENTED_EDGE ( 'NONE', *, *, #161, .T. ) ;
#152 = ORIENTED_EDGE ( 'NONE', *, *, #131, .F. ) ;
#153 = APPLICATION_PROTOCOL_DEFINITION ( 'draft international standard', 'automotive_design', 1998, #114 ) ;
#154 = VECTOR ( 'NONE', #77, 1000.000000000000000 ) ;
#155 = DIRECTION ( 'NONE',  ( -1.000000000000000000, 0.0000000000000000000, 0.0000000000000000000 ) ) ;
#156 = VERTEX_POINT ( 'NONE', #44 ) ;
#157 = DIRECTION ( 'NONE',  ( 0.0000000000000000000, 0.0000000000000000000, 1.000000000000000000 ) ) ;
#158 = ORIENTED_EDGE ( 'NONE', *, *, #172, .F. ) ;
#159 = EDGE_CURVE ( 'NONE', #234, #156, #59, .T. ) ;
#160 = DIRECTION ( 'NONE',  ( 0.0000000000000000000, 0.0000000000000000000, 1.000000000000000000 ) ) ;
#161 = EDGE_CURVE ( 'NONE', #188, #204, #253, .T. ) ;
#162 = SURFACE_STYLE_FILL_AREA ( #54 ) ;
#163 = ORIENTED_EDGE ( 'NONE', *, *, #212, .F. ) ;
#164 = ORIENTED_EDGE ( 'NONE', *, *, #194, .T. ) ;
#165 = ADVANCED_FACE ( 'NONE', ( #92 ), #16, .F. ) ;
#166 = LINE ( 'NONE', #53, #247 ) ;
#167 = COLOUR_RGB ( '',1.000000000000000000, 1.000000000000000000, 1.000000000000000000 ) ;
#168 = ORIENTED_EDGE ( 'NONE', *, *, #70, .T. ) ;
#169 = MECHANICAL_DESIGN_GEOMETRIC_PRESENTATION_REPRESENTATION (  '', ( #52 ), #108 ) ;
#170 = ORIENTED_EDGE ( 'NONE', *, *, #115, .F. ) ;
#171 = DIRECTION ( 'NONE',  ( 1.000000000000000000, 0.0000000000000000000, 0.0000000000000000000 ) ) ;
#172 = EDGE_CURVE ( 'NONE', #221, #40, #37, .T. ) ;
#173 = CARTESIAN_POINT ( 'NONE',  ( 0.0000000000000000000, 30.00000000000000000, 0.0000000000000000000 ) ) ;
#174 = UNCERTAINTY_MEASURE_WITH_UNIT (LENGTH_MEASURE( 1.000000000000000100E-005 ), #255, 'distance_accuracy_value', 'NONE');
#175 = VERTEX_POINT ( 'NONE', #196 ) ;
#176 = CARTESIAN_POINT ( 'NONE',  ( 0.0000000000000000000, 0.0000000000000000000, 5.000000000000000000 ) ) ;
#177 = CARTESIAN_POINT ( 'NONE',  ( 0.0000000000000000000, 0.0000000000000000000, 0.0000000000000000000 ) ) ;
#178 = FILL_AREA_STYLE_COLOUR ( '', #167 ) ;
#179 = CARTESIAN_POINT ( 'NONE',  ( 0.0000000000000000000, 30.00000000000000000, 0.0000000000000000000 ) ) ;
#180 = VECTOR ( 'NONE', #51, 1000.000000000000000 ) ;
#181 = AXIS2_PLACEMENT_3D ( 'NONE', #147, #157, #171 ) ;
#182 = CARTESIAN_POINT ( 'NONE',  ( 0.0000000000000000000, 0.0000000000000000000, 5.000000000000000000 ) ) ;
#183 = VERTEX_POINT ( 'NONE', #116 ) ;
#184 = EDGE_CURVE ( 'NONE', #221, #13, #207, .T. ) ;
#185 = ORIENTED_EDGE ( 'NONE', *, *, #131, .T. ) ;
#186 = CARTESIAN_POINT ( 'NONE',  ( 15.79999999999999900, 14.99999999999999800, 5.000000000000000000 ) ) ;
#187 = ORIENTED_EDGE ( 'NONE', *, *, #149, .F. ) ;
#188 = VERTEX_POINT ( 'NONE', #123 ) ;
#189 = ADVANCED_BREP_SHAPE_REPRESENTATION ( '096p0302505m8', ( #225, #244 ), #191 ) ;
#190 = LINE ( 'NONE', #182, #240 ) ;
#191 =( GEOMETRIC_REPRESENTATION_CONTEXT ( 3 ) GLOBAL_UNCERTAINTY_ASSIGNED_CONTEXT ( ( #15 ) ) GLOBAL_UNIT_ASSIGNED_CONTEXT ( ( #201, #6, #21 ) ) REPRESENTATION_CONTEXT ( 'NONE', 'WORKASPACE' ) );
#192 = ORIENTED_EDGE ( 'NONE', *, *, #194, .F. ) ;
#193 = CARTESIAN_POINT ( 'NONE',  ( 0.0000000000000000000, 0.0000000000000000000, 0.0000000000000000000 ) ) ;
#194 = EDGE_CURVE ( 'NONE', #183, #175, #224, .T. ) ;
#195 = CARTESIAN_POINT ( 'NONE',  ( 0.0000000000000000000, 0.0000000000000000000, 0.0000000000000000000 ) ) ;
#196 = CARTESIAN_POINT ( 'NONE',  ( 25.00000000000000000, 3.061515884555943100E-015, 0.0000000000000000000 ) ) ;
#197 = DIRECTION ( 'NONE',  ( -0.0000000000000000000, -0.0000000000000000000, -1.000000000000000000 ) ) ;
#198 = LINE ( 'NONE', #63, #154 ) ;
#199 = EDGE_CURVE ( 'NONE', #13, #215, #275, .T. ) ;
#200 = EDGE_LOOP ( 'NONE', ( #134, #170, #250, #185 ) ) ;
#201 =( LENGTH_UNIT ( ) NAMED_UNIT ( * ) SI_UNIT ( .MILLI., .METRE. ) );
#202 = AXIS2_PLACEMENT_3D ( 'NONE', #271, #60, #84 ) ;
#203 = ORIENTED_EDGE ( 'NONE', *, *, #212, .T. ) ;
#204 = VERTEX_POINT ( 'NONE', #75 ) ;
#205 = VERTEX_POINT ( 'NONE', #65 ) ;
#206 = DIRECTION ( 'NONE',  ( -1.000000000000000000, 1.387778780781445700E-016, -0.0000000000000000000 ) ) ;
#207 = CIRCLE ( 'NONE', #238, 3.300000000000000700 ) ;
#208 = SURFACE_STYLE_FILL_AREA ( #32 ) ;
#209 = ADVANCED_FACE ( 'NONE', ( #139 ), #105, .F. ) ;
#210 = EDGE_LOOP ( 'NONE', ( #101, #89, #146, #243 ) ) ;
#211 = CARTESIAN_POINT ( 'NONE',  ( 0.0000000000000000000, 30.00000000000000000, 5.000000000000000000 ) ) ;
#212 = EDGE_CURVE ( 'NONE', #156, #205, #166, .T. ) ;
#213 = AXIS2_PLACEMENT_3D ( 'NONE', #79, #197, #155 ) ;
#214 = FACE_BOUND ( 'NONE', #41, .T. ) ;
#215 = VERTEX_POINT ( 'NONE', #67 ) ;
#216 = CARTESIAN_POINT ( 'NONE',  ( 25.00000000000000000, 3.061515884555943100E-015, 5.000000000000000000 ) ) ;
#217 = VECTOR ( 'NONE', #62, 1000.000000000000000 ) ;
#218 = FACE_OUTER_BOUND ( 'NONE', #136, .T. ) ;
#219 = ORIENTED_EDGE ( 'NONE', *, *, #223, .T. ) ;
#220 = AXIS2_PLACEMENT_3D ( 'NONE', #106, #55, #50 ) ;
#221 = VERTEX_POINT ( 'NONE', #45 ) ;
#222 = ADVANCED_FACE ( 'NONE', ( #73 ), #83, .F. ) ;
#223 = EDGE_CURVE ( 'NONE', #40, #215, #125, .T. ) ;
#224 = LINE ( 'NONE', #193, #236 ) ;
#225 = MANIFOLD_SOLID_BREP ( 'Basis-Linear austragen', #80 ) ;
#226 = EDGE_CURVE ( 'NONE', #188, #234, #258, .T. ) ;
#227 = DIRECTION ( 'NONE',  ( 0.0000000000000000000, 1.000000000000000000, 0.0000000000000000000 ) ) ;
#228 = ORIENTED_EDGE ( 'NONE', *, *, #94, .T. ) ;
#229 = ORIENTED_EDGE ( 'NONE', *, *, #128, .F. ) ;
#230 =( NAMED_UNIT ( * ) SI_UNIT ( $, .STERADIAN. ) SOLID_ANGLE_UNIT ( ) );
#231 = VECTOR ( 'NONE', #58, 1000.000000000000000 ) ;
#232 = ORIENTED_EDGE ( 'NONE', *, *, #237, .F. ) ;
#233 = ORIENTED_EDGE ( 'NONE', *, *, #237, .T. ) ;
#234 = VERTEX_POINT ( 'NONE', #211 ) ;
#235 = PLANE ( 'NONE',  #202 ) ;
#236 = VECTOR ( 'NONE', #126, 1000.000000000000000 ) ;
#237 = EDGE_CURVE ( 'NONE', #13, #221, #76, .T. ) ;
#238 = AXIS2_PLACEMENT_3D ( 'NONE', #111, #113, #82 ) ;
#239 = ORIENTED_EDGE ( 'NONE', *, *, #64, .F. ) ;
#240 = VECTOR ( 'NONE', #252, 1000.000000000000000 ) ;
#241 = ADVANCED_FACE ( 'NONE', ( #267 ), #254, .F. ) ;
#242 = ORIENTED_EDGE ( 'NONE', *, *, #199, .T. ) ;
#243 = ORIENTED_EDGE ( 'NONE', *, *, #149, .T. ) ;
#244 = AXIS2_PLACEMENT_3D ( 'NONE', #177, #102, #96 ) ;
#245 = AXIS2_PLACEMENT_3D ( 'NONE', #26, #1, #2 ) ;
#246 = PRODUCT_DEFINITION_CONTEXT ( 'detailed design', #114, 'design' ) ;
#247 = VECTOR ( 'NONE', #35, 1000.000000000000000 ) ;
#248 = FACE_BOUND ( 'NONE', #23, .T. ) ;
#249 = AXIS2_PLACEMENT_3D ( 'NONE', #122, #42, #12 ) ;
#250 = ORIENTED_EDGE ( 'NONE', *, *, #159, .F. ) ;
#251 = VECTOR ( 'NONE', #269, 1000.000000000000000 ) ;
#252 = DIRECTION ( 'NONE',  ( -0.0000000000000000000, -0.0000000000000000000, -1.000000000000000000 ) ) ;
#253 = LINE ( 'NONE', #36, #180 ) ;
#254 = PLANE ( 'NONE',  #120 ) ;
#255 =( LENGTH_UNIT ( ) NAMED_UNIT ( * ) SI_UNIT ( .MILLI., .METRE. ) );
#256 = CIRCLE ( 'NONE', #181, 3.300000000000000700 ) ;
#257 = ORIENTED_EDGE ( 'NONE', *, *, #172, .T. ) ;
#258 = LINE ( 'NONE', #17, #262 ) ;
#259 = CARTESIAN_POINT ( 'NONE',  ( 9.199999999999995700, 14.99999999999999800, 0.0000000000000000000 ) ) ;
#260 = ORIENTED_EDGE ( 'NONE', *, *, #22, .F. ) ;
#261 = PRODUCT_DEFINITION_FORMATION_WITH_SPECIFIED_SOURCE ( 'ANY', '', #48, .NOT_KNOWN. ) ;
#262 = VECTOR ( 'NONE', #206, 1000.000000000000000 ) ;
#263 = ORIENTED_EDGE ( 'NONE', *, *, #199, .F. ) ;
#264 = ORIENTED_EDGE ( 'NONE', *, *, #226, .T. ) ;
#265 = DIRECTION ( 'NONE',  ( -1.000000000000000000, 1.387778780781445700E-016, -0.0000000000000000000 ) ) ;
#266 = ORIENTED_EDGE ( 'NONE', *, *, #115, .T. ) ;
#267 = FACE_OUTER_BOUND ( 'NONE', #210, .T. ) ;
#268 = VECTOR ( 'NONE', #91, 1000.000000000000000 ) ;
#269 = DIRECTION ( 'NONE',  ( -0.0000000000000000000, -1.000000000000000000, -0.0000000000000000000 ) ) ;
#270 = VECTOR ( 'NONE', #142, 1000.000000000000000 ) ;
#271 = CARTESIAN_POINT ( 'NONE',  ( 0.0000000000000000000, 0.0000000000000000000, 0.0000000000000000000 ) ) ;
#272 = FACE_OUTER_BOUND ( 'NONE', #47, .T. ) ;
#273 = EDGE_LOOP ( 'NONE', ( #263, #233, #257, #20 ) ) ;
#274 = AXIS2_PLACEMENT_3D ( 'NONE', #90, #112, #71 ) ;
#275 = LINE ( 'NONE', #72, #268 ) ;
#276 = LINE ( 'NONE', #179, #68 ) ;
ENDSEC;
END-ISO-10303-21;
