ISO-10303-21;
HEADER;
FILE_DESCRIPTION (( 'STEP AP214' ),
    '1' );
FILE_NAME ('096p0302006m10.STEP',
    '2014-08-18T12:54:38',
    ( '' ),
    ( '' ),
    'SwSTEP 2.0',
    'SolidWorks 2014',
    '' );
FILE_SCHEMA (( 'AUTOMOTIVE_DESIGN' ));
ENDSEC;

DATA;
#1 = DIRECTION ( 'NONE',  ( 0.0000000000000000000, 1.000000000000000000, 0.0000000000000000000 ) ) ;
#2 = MECHANICAL_DESIGN_GEOMETRIC_PRESENTATION_REPRESENTATION (  '', ( #11 ), #241 ) ;
#3 = LINE ( 'NONE', #84, #32 ) ;
#4 = ORIENTED_EDGE ( 'NONE', *, *, #12, .T. ) ;
#5 = AXIS2_PLACEMENT_3D ( 'NONE', #142, #45, #108 ) ;
#6 = PRESENTATION_LAYER_ASSIGNMENT (  '', '', ( #11 ) ) ;
#7 = APPLICATION_CONTEXT ( 'automotive_design' ) ;
#8 = PRODUCT_CONTEXT ( 'NONE', #34, 'mechanical' ) ;
#9 = ORIENTED_EDGE ( 'NONE', *, *, #232, .T. ) ;
#10 = DIRECTION ( 'NONE',  ( 1.000000000000000000, 0.0000000000000000000, 0.0000000000000000000 ) ) ;
#11 = STYLED_ITEM ( 'NONE', ( #65 ), #123 ) ;
#12 = EDGE_CURVE ( 'NONE', #239, #103, #114, .T. ) ;
#13 = FACE_OUTER_BOUND ( 'NONE', #106, .T. ) ;
#14 = ORIENTED_EDGE ( 'NONE', *, *, #175, .T. ) ;
#15 = ADVANCED_FACE ( 'NONE', ( #130, #92 ), #173, .T. ) ;
#16 = CARTESIAN_POINT ( 'NONE',  ( 20.00000000000000000, 30.00000000000000000, 0.0000000000000000000 ) ) ;
#17 = DIRECTION ( 'NONE',  ( 0.0000000000000000000, 0.0000000000000000000, 1.000000000000000000 ) ) ;
#18 =( NAMED_UNIT ( * ) SI_UNIT ( $, .STERADIAN. ) SOLID_ANGLE_UNIT ( ) );
#19 =( NAMED_UNIT ( * ) PLANE_ANGLE_UNIT ( ) SI_UNIT ( $, .RADIAN. ) );
#20 = LINE ( 'NONE', #33, #37 ) ;
#21 = ORIENTED_EDGE ( 'NONE', *, *, #104, .F. ) ;
#22 = LINE ( 'NONE', #242, #167 ) ;
#23 = ORIENTED_EDGE ( 'NONE', *, *, #201, .T. ) ;
#24 = AXIS2_PLACEMENT_3D ( 'NONE', #95, #74, #67 ) ;
#25 =( LENGTH_UNIT ( ) NAMED_UNIT ( * ) SI_UNIT ( .MILLI., .METRE. ) );
#26 = CARTESIAN_POINT ( 'NONE',  ( 9.999999999999994700, 15.00000000000000200, 6.000000000000000000 ) ) ;
#27 = SURFACE_STYLE_USAGE ( .BOTH. , #31 ) ;
#28 = EDGE_CURVE ( 'NONE', #164, #235, #75, .T. ) ;
#29 = AXIS2_PLACEMENT_3D ( 'NONE', #195, #215, #213 ) ;
#30 = ORIENTED_EDGE ( 'NONE', *, *, #180, .T. ) ;
#31 = SURFACE_SIDE_STYLE ('',( #72 ) ) ;
#32 = VECTOR ( 'NONE', #1, 1000.000000000000000 ) ;
#33 = CARTESIAN_POINT ( 'NONE',  ( 13.99999999999999500, 15.00000000000000200, 6.000000000000000000 ) ) ;
#34 = APPLICATION_CONTEXT ( 'automotive_design' ) ;
#35 = DIRECTION ( 'NONE',  ( 0.0000000000000000000, 0.0000000000000000000, -1.000000000000000000 ) ) ;
#36 =( GEOMETRIC_REPRESENTATION_CONTEXT ( 3 ) GLOBAL_UNCERTAINTY_ASSIGNED_CONTEXT ( ( #52 ) ) GLOBAL_UNIT_ASSIGNED_CONTEXT ( ( #49, #46, #43 ) ) REPRESENTATION_CONTEXT ( 'NONE', 'WORKASPACE' ) );
#37 = VECTOR ( 'NONE', #73, 1000.000000000000000 ) ;
#38 = ORIENTED_EDGE ( 'NONE', *, *, #190, .F. ) ;
#39 = EDGE_CURVE ( 'NONE', #103, #133, #59, .T. ) ;
#40 = PRODUCT_RELATED_PRODUCT_CATEGORY ( 'part', '', ( #118 ) ) ;
#41 = APPLICATION_PROTOCOL_DEFINITION ( 'draft international standard', 'automotive_design', 1998, #34 ) ;
#42 = AXIS2_PLACEMENT_3D ( 'NONE', #117, #109, #105 ) ;
#43 =( NAMED_UNIT ( * ) SI_UNIT ( $, .STERADIAN. ) SOLID_ANGLE_UNIT ( ) );
#44 = VERTEX_POINT ( 'NONE', #143 ) ;
#45 = DIRECTION ( 'NONE',  ( 0.0000000000000000000, 0.0000000000000000000, 1.000000000000000000 ) ) ;
#46 =( NAMED_UNIT ( * ) PLANE_ANGLE_UNIT ( ) SI_UNIT ( $, .RADIAN. ) );
#47 = VECTOR ( 'NONE', #125, 1000.000000000000000 ) ;
#48 = ADVANCED_FACE ( 'NONE', ( #85 ), #60, .F. ) ;
#49 =( LENGTH_UNIT ( ) NAMED_UNIT ( * ) SI_UNIT ( .MILLI., .METRE. ) );
#50 = EDGE_CURVE ( 'NONE', #235, #165, #20, .T. ) ;
#51 = CYLINDRICAL_SURFACE ( 'NONE', #193, 4.000000000000000900 ) ;
#52 = UNCERTAINTY_MEASURE_WITH_UNIT (LENGTH_MEASURE( 1.000000000000000100E-005 ), #49, 'distance_accuracy_value', 'NONE');
#53 = DIRECTION ( 'NONE',  ( -1.000000000000000000, 0.0000000000000000000, 0.0000000000000000000 ) ) ;
#54 = VERTEX_POINT ( 'NONE', #80 ) ;
#55 = ORIENTED_EDGE ( 'NONE', *, *, #98, .F. ) ;
#56 = VERTEX_POINT ( 'NONE', #78 ) ;
#57 = DIRECTION ( 'NONE',  ( -0.0000000000000000000, -0.0000000000000000000, -1.000000000000000000 ) ) ;
#58 = CARTESIAN_POINT ( 'NONE',  ( 0.0000000000000000000, 0.0000000000000000000, 0.0000000000000000000 ) ) ;
#59 = LINE ( 'NONE', #171, #47 ) ;
#60 = PLANE ( 'NONE',  #263 ) ;
#61 = FACE_BOUND ( 'NONE', #217, .T. ) ;
#62 = EDGE_CURVE ( 'NONE', #276, #162, #3, .T. ) ;
#63 = FILL_AREA_STYLE_COLOUR ( '', #79 ) ;
#64 = ORIENTED_EDGE ( 'NONE', *, *, #62, .F. ) ;
#65 = PRESENTATION_STYLE_ASSIGNMENT (( #27 ) ) ;
#66 = VERTEX_POINT ( 'NONE', #271 ) ;
#67 = DIRECTION ( 'NONE',  ( 0.0000000000000000000, -0.0000000000000000000, -1.000000000000000000 ) ) ;
#68 = ADVANCED_FACE ( 'NONE', ( #210 ), #149, .F. ) ;
#69 = MANIFOLD_SOLID_BREP ( 'Basis-Linear austragen', #94 ) ;
#70 = COLOUR_RGB ( '',1.000000000000000000, 1.000000000000000000, 1.000000000000000000 ) ;
#71 = ORIENTED_EDGE ( 'NONE', *, *, #175, .F. ) ;
#72 = SURFACE_STYLE_FILL_AREA ( #138 ) ;
#73 = DIRECTION ( 'NONE',  ( -0.0000000000000000000, -0.0000000000000000000, -1.000000000000000000 ) ) ;
#74 = DIRECTION ( 'NONE',  ( 0.0000000000000000000, -1.000000000000000000, 0.0000000000000000000 ) ) ;
#75 = CIRCLE ( 'NONE', #5, 4.000000000000000000 ) ;
#76 = LINE ( 'NONE', #137, #86 ) ;
#77 = EDGE_CURVE ( 'NONE', #54, #276, #88, .T. ) ;
#78 = CARTESIAN_POINT ( 'NONE',  ( 0.0000000000000000000, 0.0000000000000000000, 0.0000000000000000000 ) ) ;
#79 = COLOUR_RGB ( '',1.000000000000000000, 1.000000000000000000, 1.000000000000000000 ) ;
#80 = CARTESIAN_POINT ( 'NONE',  ( 20.00000000000000000, 2.449212707644754500E-015, 6.000000000000000000 ) ) ;
#81 = AXIS2_PLACEMENT_3D ( 'NONE', #174, #150, #148 ) ;
#82 = ORIENTED_EDGE ( 'NONE', *, *, #127, .T. ) ;
#83 = PLANE ( 'NONE',  #24 ) ;
#84 = CARTESIAN_POINT ( 'NONE',  ( 20.00000000000000000, 2.449212707644754500E-015, 0.0000000000000000000 ) ) ;
#85 = FACE_OUTER_BOUND ( 'NONE', #128, .T. ) ;
#86 = VECTOR ( 'NONE', #135, 1000.000000000000000 ) ;
#87 = CARTESIAN_POINT ( 'NONE',  ( 0.0000000000000000000, 0.0000000000000000000, 6.000000000000000000 ) ) ;
#88 = LINE ( 'NONE', #256, #196 ) ;
#89 = CARTESIAN_POINT ( 'NONE',  ( 20.00000000000000000, 2.449212707644754500E-015, 0.0000000000000000000 ) ) ;
#90 = SHAPE_DEFINITION_REPRESENTATION ( #120, #123 ) ;
#91 = ADVANCED_FACE ( 'NONE', ( #13 ), #51, .F. ) ;
#92 = FACE_BOUND ( 'NONE', #223, .T. ) ;
#93 = LINE ( 'NONE', #209, #176 ) ;
#94 = CLOSED_SHELL ( 'NONE', ( #91, #157, #15, #48, #248, #182, #273, #68 ) ) ;
#95 = CARTESIAN_POINT ( 'NONE',  ( 0.0000000000000000000, 30.00000000000000000, 6.000000000000000000 ) ) ;
#96 = ORIENTED_EDGE ( 'NONE', *, *, #28, .T. ) ;
#97 = CARTESIAN_POINT ( 'NONE',  ( 0.0000000000000000000, 30.00000000000000000, 0.0000000000000000000 ) ) ;
#98 = EDGE_CURVE ( 'NONE', #66, #56, #22, .T. ) ;
#99 = AXIS2_PLACEMENT_3D ( 'NONE', #97, #147, #252 ) ;
#100 = CARTESIAN_POINT ( 'NONE',  ( 20.00000000000000000, 2.449212707644754500E-015, 6.000000000000000000 ) ) ;
#101 = VECTOR ( 'NONE', #179, 1000.000000000000000 ) ;
#102 = DIRECTION ( 'NONE',  ( 0.0000000000000000000, 1.000000000000000000, 0.0000000000000000000 ) ) ;
#103 = VERTEX_POINT ( 'NONE', #237 ) ;
#104 = EDGE_CURVE ( 'NONE', #56, #276, #141, .T. ) ;
#105 = DIRECTION ( 'NONE',  ( -1.000000000000000000, -1.224606353822377300E-016, 0.0000000000000000000 ) ) ;
#106 = EDGE_LOOP ( 'NONE', ( #96, #205, #172, #186 ) ) ;
#107 = DIRECTION ( 'NONE',  ( 1.000000000000000000, 0.0000000000000000000, 0.0000000000000000000 ) ) ;
#108 = DIRECTION ( 'NONE',  ( 1.000000000000000000, 0.0000000000000000000, 0.0000000000000000000 ) ) ;
#109 = DIRECTION ( 'NONE',  ( -1.224606353822377300E-016, 1.000000000000000000, 0.0000000000000000000 ) ) ;
#110 = ORIENTED_EDGE ( 'NONE', *, *, #39, .F. ) ;
#111 = ORIENTED_EDGE ( 'NONE', *, *, #104, .T. ) ;
#112 = EDGE_CURVE ( 'NONE', #44, #165, #155, .T. ) ;
#113 = FACE_OUTER_BOUND ( 'NONE', #229, .T. ) ;
#114 = LINE ( 'NONE', #177, #101 ) ;
#115 = ORIENTED_EDGE ( 'NONE', *, *, #129, .T. ) ;
#116 = EDGE_LOOP ( 'NONE', ( #152, #258, #115, #71 ) ) ;
#117 = CARTESIAN_POINT ( 'NONE',  ( 0.0000000000000000000, 0.0000000000000000000, 6.000000000000000000 ) ) ;
#118 = PRODUCT ( '096p0302006m10', '096p0302006m10', '', ( #8 ) ) ;
#119 = CIRCLE ( 'NONE', #178, 4.000000000000000000 ) ;
#120 = PRODUCT_DEFINITION_SHAPE ( 'NONE', 'NONE',  #161 ) ;
#121 = PLANE ( 'NONE',  #42 ) ;
#122 = ORIENTED_EDGE ( 'NONE', *, *, #127, .F. ) ;
#123 = ADVANCED_BREP_SHAPE_REPRESENTATION ( '096p0302006m10', ( #69, #124 ), #36 ) ;
#124 = AXIS2_PLACEMENT_3D ( 'NONE', #58, #17, #10 ) ;
#125 = DIRECTION ( 'NONE',  ( -0.0000000000000000000, -1.000000000000000000, -0.0000000000000000000 ) ) ;
#126 = LINE ( 'NONE', #144, #228 ) ;
#127 = EDGE_CURVE ( 'NONE', #133, #54, #214, .T. ) ;
#128 = EDGE_LOOP ( 'NONE', ( #158, #265, #110, #268 ) ) ;
#129 = EDGE_CURVE ( 'NONE', #164, #44, #93, .T. ) ;
#130 = FACE_OUTER_BOUND ( 'NONE', #203, .T. ) ;
#131 = LINE ( 'NONE', #100, #211 ) ;
#132 = PRODUCT_DEFINITION_CONTEXT ( 'detailed design', #7, 'design' ) ;
#133 = VERTEX_POINT ( 'NONE', #207 ) ;
#134 = CARTESIAN_POINT ( 'NONE',  ( 20.00000000000000000, 30.00000000000000000, 6.000000000000000000 ) ) ;
#135 = DIRECTION ( 'NONE',  ( -0.0000000000000000000, -0.0000000000000000000, -1.000000000000000000 ) ) ;
#136 = EDGE_CURVE ( 'NONE', #235, #164, #255, .T. ) ;
#137 = CARTESIAN_POINT ( 'NONE',  ( 0.0000000000000000000, 0.0000000000000000000, 6.000000000000000000 ) ) ;
#138 = FILL_AREA_STYLE ('',( #63 ) ) ;
#139 = CARTESIAN_POINT ( 'NONE',  ( 13.99999999999999500, 15.00000000000000200, 6.000000000000000000 ) ) ;
#140 = CARTESIAN_POINT ( 'NONE',  ( 20.00000000000000000, 30.00000000000000000, 6.000000000000000000 ) ) ;
#141 = LINE ( 'NONE', #240, #236 ) ;
#142 = CARTESIAN_POINT ( 'NONE',  ( 9.999999999999994700, 15.00000000000000200, 6.000000000000000000 ) ) ;
#143 = CARTESIAN_POINT ( 'NONE',  ( 5.999999999999993800, 15.00000000000000200, 0.0000000000000000000 ) ) ;
#144 = CARTESIAN_POINT ( 'NONE',  ( 0.0000000000000000000, 30.00000000000000000, 6.000000000000000000 ) ) ;
#145 = ORIENTED_EDGE ( 'NONE', *, *, #62, .T. ) ;
#146 = VECTOR ( 'NONE', #181, 1000.000000000000000 ) ;
#147 = DIRECTION ( 'NONE',  ( 0.0000000000000000000, 0.0000000000000000000, -1.000000000000000000 ) ) ;
#148 = DIRECTION ( 'NONE',  ( 0.0000000000000000000, 0.0000000000000000000, 1.000000000000000000 ) ) ;
#149 = CYLINDRICAL_SURFACE ( 'NONE', #269, 4.000000000000000900 ) ;
#150 = DIRECTION ( 'NONE',  ( -1.000000000000000000, 0.0000000000000000000, 0.0000000000000000000 ) ) ;
#151 = LINE ( 'NONE', #188, #204 ) ;
#152 = ORIENTED_EDGE ( 'NONE', *, *, #50, .F. ) ;
#153 = PLANE ( 'NONE',  #81 ) ;
#154 = PRODUCT_DEFINITION_FORMATION_WITH_SPECIFIED_SOURCE ( 'ANY', '', #118, .NOT_KNOWN. ) ;
#155 = CIRCLE ( 'NONE', #29, 4.000000000000000000 ) ;
#156 = ORIENTED_EDGE ( 'NONE', *, *, #180, .F. ) ;
#157 = ADVANCED_FACE ( 'NONE', ( #243, #61 ), #202, .F. ) ;
#158 = ORIENTED_EDGE ( 'NONE', *, *, #98, .T. ) ;
#159 = AXIS2_PLACEMENT_3D ( 'NONE', #238, #194, #189 ) ;
#160 = DIRECTION ( 'NONE',  ( -0.0000000000000000000, -0.0000000000000000000, -1.000000000000000000 ) ) ;
#161 = PRODUCT_DEFINITION ( 'UNKNOWN', '', #154, #132 ) ;
#162 = VERTEX_POINT ( 'NONE', #16 ) ;
#163 = DIRECTION ( 'NONE',  ( 1.000000000000000000, 0.0000000000000000000, 0.0000000000000000000 ) ) ;
#164 = VERTEX_POINT ( 'NONE', #185 ) ;
#165 = VERTEX_POINT ( 'NONE', #183 ) ;
#166 = DIRECTION ( 'NONE',  ( 0.0000000000000000000, 0.0000000000000000000, 1.000000000000000000 ) ) ;
#167 = VECTOR ( 'NONE', #246, 1000.000000000000000 ) ;
#168 = CARTESIAN_POINT ( 'NONE',  ( 9.999999999999994700, 15.00000000000000200, 0.0000000000000000000 ) ) ;
#169 = ORIENTED_EDGE ( 'NONE', *, *, #201, .F. ) ;
#170 = AXIS2_PLACEMENT_3D ( 'NONE', #199, #198, #197 ) ;
#171 = CARTESIAN_POINT ( 'NONE',  ( 0.0000000000000000000, 0.0000000000000000000, 6.000000000000000000 ) ) ;
#172 = ORIENTED_EDGE ( 'NONE', *, *, #112, .F. ) ;
#173 = PLANE ( 'NONE',  #99 ) ;
#174 = CARTESIAN_POINT ( 'NONE',  ( 20.00000000000000000, 2.449212707644754500E-015, 6.000000000000000000 ) ) ;
#175 = EDGE_CURVE ( 'NONE', #165, #44, #119, .T. ) ;
#176 = VECTOR ( 'NONE', #206, 1000.000000000000000 ) ;
#177 = CARTESIAN_POINT ( 'NONE',  ( 0.0000000000000000000, 30.00000000000000000, 6.000000000000000000 ) ) ;
#178 = AXIS2_PLACEMENT_3D ( 'NONE', #168, #166, #163 ) ;
#179 = DIRECTION ( 'NONE',  ( -1.000000000000000000, -0.0000000000000000000, -0.0000000000000000000 ) ) ;
#180 = EDGE_CURVE ( 'NONE', #162, #66, #151, .T. ) ;
#181 = DIRECTION ( 'NONE',  ( -0.0000000000000000000, -0.0000000000000000000, -1.000000000000000000 ) ) ;
#182 = ADVANCED_FACE ( 'NONE', ( #184 ), #153, .F. ) ;
#183 = CARTESIAN_POINT ( 'NONE',  ( 13.99999999999999500, 15.00000000000000200, 0.0000000000000000000 ) ) ;
#184 = FACE_OUTER_BOUND ( 'NONE', #216, .T. ) ;
#185 = CARTESIAN_POINT ( 'NONE',  ( 5.999999999999993800, 15.00000000000000200, 6.000000000000000000 ) ) ;
#186 = ORIENTED_EDGE ( 'NONE', *, *, #129, .F. ) ;
#187 = APPLICATION_PROTOCOL_DEFINITION ( 'draft international standard', 'automotive_design', 1998, #7 ) ;
#188 = CARTESIAN_POINT ( 'NONE',  ( 0.0000000000000000000, 30.00000000000000000, 0.0000000000000000000 ) ) ;
#189 = DIRECTION ( 'NONE',  ( -1.000000000000000000, 0.0000000000000000000, -0.0000000000000000000 ) ) ;
#190 = EDGE_CURVE ( 'NONE', #103, #66, #126, .T. ) ;
#191 = ORIENTED_EDGE ( 'NONE', *, *, #77, .T. ) ;
#192 = ORIENTED_EDGE ( 'NONE', *, *, #267, .F. ) ;
#193 = AXIS2_PLACEMENT_3D ( 'NONE', #249, #245, #254 ) ;
#194 = DIRECTION ( 'NONE',  ( 0.0000000000000000000, 0.0000000000000000000, -1.000000000000000000 ) ) ;
#195 = CARTESIAN_POINT ( 'NONE',  ( 9.999999999999994700, 15.00000000000000200, 0.0000000000000000000 ) ) ;
#196 = VECTOR ( 'NONE', #247, 1000.000000000000000 ) ;
#197 = DIRECTION ( 'NONE',  ( 1.000000000000000000, 0.0000000000000000000, 0.0000000000000000000 ) ) ;
#198 = DIRECTION ( 'NONE',  ( 0.0000000000000000000, 0.0000000000000000000, 1.000000000000000000 ) ) ;
#199 = CARTESIAN_POINT ( 'NONE',  ( 9.999999999999994700, 15.00000000000000200, 6.000000000000000000 ) ) ;
#200 = ORIENTED_EDGE ( 'NONE', *, *, #112, .T. ) ;
#201 = EDGE_CURVE ( 'NONE', #239, #162, #274, .T. ) ;
#202 = PLANE ( 'NONE',  #159 ) ;
#203 = EDGE_LOOP ( 'NONE', ( #55, #156, #64, #21 ) ) ;
#204 = VECTOR ( 'NONE', #221, 1000.000000000000000 ) ;
#205 = ORIENTED_EDGE ( 'NONE', *, *, #50, .T. ) ;
#206 = DIRECTION ( 'NONE',  ( -0.0000000000000000000, -0.0000000000000000000, -1.000000000000000000 ) ) ;
#207 = CARTESIAN_POINT ( 'NONE',  ( 0.0000000000000000000, 0.0000000000000000000, 6.000000000000000000 ) ) ;
#208 =( GEOMETRIC_REPRESENTATION_CONTEXT ( 3 ) GLOBAL_UNCERTAINTY_ASSIGNED_CONTEXT ( ( #233 ) ) GLOBAL_UNIT_ASSIGNED_CONTEXT ( ( #260, #259, #257 ) ) REPRESENTATION_CONTEXT ( 'NONE', 'WORKASPACE' ) );
#209 = CARTESIAN_POINT ( 'NONE',  ( 5.999999999999993800, 15.00000000000000200, 6.000000000000000000 ) ) ;
#210 = FACE_OUTER_BOUND ( 'NONE', #116, .T. ) ;
#211 = VECTOR ( 'NONE', #102, 1000.000000000000000 ) ;
#212 = ORIENTED_EDGE ( 'NONE', *, *, #77, .F. ) ;
#213 = DIRECTION ( 'NONE',  ( 1.000000000000000000, 0.0000000000000000000, 0.0000000000000000000 ) ) ;
#214 = LINE ( 'NONE', #231, #250 ) ;
#215 = DIRECTION ( 'NONE',  ( 0.0000000000000000000, 0.0000000000000000000, 1.000000000000000000 ) ) ;
#216 = EDGE_LOOP ( 'NONE', ( #145, #169, #192, #191 ) ) ;
#217 = EDGE_LOOP ( 'NONE', ( #275, #225 ) ) ;
#218 = ORIENTED_EDGE ( 'NONE', *, *, #267, .T. ) ;
#219 = MECHANICAL_DESIGN_GEOMETRIC_PRESENTATION_REPRESENTATION (  '', ( #253 ), #208 ) ;
#220 = DIRECTION ( 'NONE',  ( 1.000000000000000000, 1.224606353822377300E-016, 0.0000000000000000000 ) ) ;
#221 = DIRECTION ( 'NONE',  ( -1.000000000000000000, -0.0000000000000000000, -0.0000000000000000000 ) ) ;
#222 = EDGE_LOOP ( 'NONE', ( #30, #38, #230, #23 ) ) ;
#223 = EDGE_LOOP ( 'NONE', ( #200, #14 ) ) ;
#224 = UNCERTAINTY_MEASURE_WITH_UNIT (LENGTH_MEASURE( 1.000000000000000100E-005 ), #25, 'distance_accuracy_value', 'NONE');
#225 = ORIENTED_EDGE ( 'NONE', *, *, #136, .F. ) ;
#226 = DIRECTION ( 'NONE',  ( 1.000000000000000000, 1.224606353822377300E-016, 0.0000000000000000000 ) ) ;
#227 = SURFACE_STYLE_FILL_AREA ( #264 ) ;
#228 = VECTOR ( 'NONE', #160, 1000.000000000000000 ) ;
#229 = EDGE_LOOP ( 'NONE', ( #111, #212, #122, #9 ) ) ;
#230 = ORIENTED_EDGE ( 'NONE', *, *, #12, .F. ) ;
#231 = CARTESIAN_POINT ( 'NONE',  ( 0.0000000000000000000, 0.0000000000000000000, 6.000000000000000000 ) ) ;
#232 = EDGE_CURVE ( 'NONE', #133, #56, #76, .T. ) ;
#233 = UNCERTAINTY_MEASURE_WITH_UNIT (LENGTH_MEASURE( 1.000000000000000100E-005 ), #260, 'distance_accuracy_value', 'NONE');
#234 = FACE_OUTER_BOUND ( 'NONE', #222, .T. ) ;
#235 = VERTEX_POINT ( 'NONE', #139 ) ;
#236 = VECTOR ( 'NONE', #226, 1000.000000000000000 ) ;
#237 = CARTESIAN_POINT ( 'NONE',  ( 0.0000000000000000000, 30.00000000000000000, 6.000000000000000000 ) ) ;
#238 = CARTESIAN_POINT ( 'NONE',  ( 0.0000000000000000000, 30.00000000000000000, 6.000000000000000000 ) ) ;
#239 = VERTEX_POINT ( 'NONE', #134 ) ;
#240 = CARTESIAN_POINT ( 'NONE',  ( 0.0000000000000000000, 0.0000000000000000000, 0.0000000000000000000 ) ) ;
#241 =( GEOMETRIC_REPRESENTATION_CONTEXT ( 3 ) GLOBAL_UNCERTAINTY_ASSIGNED_CONTEXT ( ( #224 ) ) GLOBAL_UNIT_ASSIGNED_CONTEXT ( ( #25, #19, #18 ) ) REPRESENTATION_CONTEXT ( 'NONE', 'WORKASPACE' ) );
#242 = CARTESIAN_POINT ( 'NONE',  ( 0.0000000000000000000, 0.0000000000000000000, 0.0000000000000000000 ) ) ;
#243 = FACE_OUTER_BOUND ( 'NONE', #251, .T. ) ;
#244 = PRESENTATION_LAYER_ASSIGNMENT (  '', '', ( #253 ) ) ;
#245 = DIRECTION ( 'NONE',  ( -0.0000000000000000000, -0.0000000000000000000, -1.000000000000000000 ) ) ;
#246 = DIRECTION ( 'NONE',  ( -0.0000000000000000000, -1.000000000000000000, -0.0000000000000000000 ) ) ;
#247 = DIRECTION ( 'NONE',  ( -0.0000000000000000000, -0.0000000000000000000, -1.000000000000000000 ) ) ;
#248 = ADVANCED_FACE ( 'NONE', ( #113 ), #121, .F. ) ;
#249 = CARTESIAN_POINT ( 'NONE',  ( 9.999999999999994700, 15.00000000000000200, 6.000000000000000000 ) ) ;
#250 = VECTOR ( 'NONE', #220, 1000.000000000000000 ) ;
#251 = EDGE_LOOP ( 'NONE', ( #272, #82, #218, #4 ) ) ;
#252 = DIRECTION ( 'NONE',  ( -1.000000000000000000, 0.0000000000000000000, -0.0000000000000000000 ) ) ;
#253 = STYLED_ITEM ( 'NONE', ( #270 ), #69 ) ;
#254 = DIRECTION ( 'NONE',  ( -1.000000000000000000, 0.0000000000000000000, 0.0000000000000000000 ) ) ;
#255 = CIRCLE ( 'NONE', #170, 4.000000000000000000 ) ;
#256 = CARTESIAN_POINT ( 'NONE',  ( 20.00000000000000000, 2.449212707644754500E-015, 6.000000000000000000 ) ) ;
#257 =( NAMED_UNIT ( * ) SI_UNIT ( $, .STERADIAN. ) SOLID_ANGLE_UNIT ( ) );
#258 = ORIENTED_EDGE ( 'NONE', *, *, #136, .T. ) ;
#259 =( NAMED_UNIT ( * ) PLANE_ANGLE_UNIT ( ) SI_UNIT ( $, .RADIAN. ) );
#260 =( LENGTH_UNIT ( ) NAMED_UNIT ( * ) SI_UNIT ( .MILLI., .METRE. ) );
#261 = SURFACE_STYLE_USAGE ( .BOTH. , #262 ) ;
#262 = SURFACE_SIDE_STYLE ('',( #227 ) ) ;
#263 = AXIS2_PLACEMENT_3D ( 'NONE', #87, #107, #35 ) ;
#264 = FILL_AREA_STYLE ('',( #266 ) ) ;
#265 = ORIENTED_EDGE ( 'NONE', *, *, #232, .F. ) ;
#266 = FILL_AREA_STYLE_COLOUR ( '', #70 ) ;
#267 = EDGE_CURVE ( 'NONE', #54, #239, #131, .T. ) ;
#268 = ORIENTED_EDGE ( 'NONE', *, *, #190, .T. ) ;
#269 = AXIS2_PLACEMENT_3D ( 'NONE', #26, #57, #53 ) ;
#270 = PRESENTATION_STYLE_ASSIGNMENT (( #261 ) ) ;
#271 = CARTESIAN_POINT ( 'NONE',  ( 0.0000000000000000000, 30.00000000000000000, 0.0000000000000000000 ) ) ;
#272 = ORIENTED_EDGE ( 'NONE', *, *, #39, .T. ) ;
#273 = ADVANCED_FACE ( 'NONE', ( #234 ), #83, .F. ) ;
#274 = LINE ( 'NONE', #140, #146 ) ;
#275 = ORIENTED_EDGE ( 'NONE', *, *, #28, .F. ) ;
#276 = VERTEX_POINT ( 'NONE', #89 ) ;
ENDSEC;
END-ISO-10303-21;
