ISO-10303-21;
HEADER;
FILE_DESCRIPTION (( 'STEP AP214' ),
    '1' );
FILE_NAME ('096p0251205m6.STEP',
    '2014-08-18T12:52:14',
    ( '' ),
    ( '' ),
    'SwSTEP 2.0',
    'SolidWorks 2014',
    '' );
FILE_SCHEMA (( 'AUTOMOTIVE_DESIGN' ));
ENDSEC;

DATA;
#1 = CARTESIAN_POINT ( 'NONE',  ( 0.0000000000000000000, 0.0000000000000000000, 5.000000000000000000 ) ) ;
#2 = UNCERTAINTY_MEASURE_WITH_UNIT (LENGTH_MEASURE( 1.000000000000000100E-005 ), #183, 'distance_accuracy_value', 'NONE');
#3 = CARTESIAN_POINT ( 'NONE',  ( 0.0000000000000000000, 25.00000000000000000, 5.000000000000000000 ) ) ;
#4 = CYLINDRICAL_SURFACE ( 'NONE', #120, 2.499999999999999600 ) ;
#5 = DIRECTION ( 'NONE',  ( 0.0000000000000000000, -0.0000000000000000000, -1.000000000000000000 ) ) ;
#6 = DIRECTION ( 'NONE',  ( 0.0000000000000000000, -1.000000000000000000, 0.0000000000000000000 ) ) ;
#7 = ADVANCED_FACE ( 'NONE', ( #15 ), #123, .F. ) ;
#8 = FACE_OUTER_BOUND ( 'NONE', #275, .T. ) ;
#9 = VERTEX_POINT ( 'NONE', #177 ) ;
#10 = EDGE_CURVE ( 'NONE', #150, #210, #172, .T. ) ;
#11 = AXIS2_PLACEMENT_3D ( 'NONE', #180, #52, #26 ) ;
#12 = ORIENTED_EDGE ( 'NONE', *, *, #144, .T. ) ;
#13 = PLANE ( 'NONE',  #226 ) ;
#14 = ADVANCED_BREP_SHAPE_REPRESENTATION ( '096p0251205m6', ( #262, #11 ), #175 ) ;
#15 = FACE_OUTER_BOUND ( 'NONE', #38, .T. ) ;
#16 = DIRECTION ( 'NONE',  ( -0.0000000000000000000, -0.0000000000000000000, -1.000000000000000000 ) ) ;
#17 = VECTOR ( 'NONE', #257, 1000.000000000000000 ) ;
#18 = CARTESIAN_POINT ( 'NONE',  ( 0.0000000000000000000, 25.00000000000000000, 5.000000000000000000 ) ) ;
#19 = CARTESIAN_POINT ( 'NONE',  ( 12.00000000000000000, 0.0000000000000000000, 5.000000000000000000 ) ) ;
#20 = DIRECTION ( 'NONE',  ( -0.0000000000000000000, -0.0000000000000000000, -1.000000000000000000 ) ) ;
#21 = CARTESIAN_POINT ( 'NONE',  ( 0.0000000000000000000, 0.0000000000000000000, 0.0000000000000000000 ) ) ;
#22 = CARTESIAN_POINT ( 'NONE',  ( 12.00000000000000000, 0.0000000000000000000, 0.0000000000000000000 ) ) ;
#23 = EDGE_CURVE ( 'NONE', #53, #9, #67, .T. ) ;
#24 = PRODUCT_DEFINITION ( 'UNKNOWN', '', #42, #221 ) ;
#25 = DIRECTION ( 'NONE',  ( 1.000000000000000000, 0.0000000000000000000, 0.0000000000000000000 ) ) ;
#26 = DIRECTION ( 'NONE',  ( 1.000000000000000000, 0.0000000000000000000, 0.0000000000000000000 ) ) ;
#27 = DIRECTION ( 'NONE',  ( 0.0000000000000000000, 0.0000000000000000000, 1.000000000000000000 ) ) ;
#28 = DIRECTION ( 'NONE',  ( -1.000000000000000000, 0.0000000000000000000, 0.0000000000000000000 ) ) ;
#29 = ORIENTED_EDGE ( 'NONE', *, *, #268, .T. ) ;
#30 = ORIENTED_EDGE ( 'NONE', *, *, #133, .T. ) ;
#31 = ORIENTED_EDGE ( 'NONE', *, *, #243, .T. ) ;
#32 = ADVANCED_FACE ( 'NONE', ( #55, #130 ), #101, .T. ) ;
#33 = CARTESIAN_POINT ( 'NONE',  ( 8.500000000000003600, 12.49999999999999600, 0.0000000000000000000 ) ) ;
#34 = CARTESIAN_POINT ( 'NONE',  ( 12.00000000000000000, 25.00000000000000000, 5.000000000000000000 ) ) ;
#35 = PLANE ( 'NONE',  #193 ) ;
#36 = CARTESIAN_POINT ( 'NONE',  ( 12.00000000000000000, 25.00000000000000000, 5.000000000000000000 ) ) ;
#37 = CARTESIAN_POINT ( 'NONE',  ( 12.00000000000000000, 0.0000000000000000000, 5.000000000000000000 ) ) ;
#38 = EDGE_LOOP ( 'NONE', ( #31, #97, #122, #159 ) ) ;
#39 = VERTEX_POINT ( 'NONE', #109 ) ;
#40 = DIRECTION ( 'NONE',  ( 1.000000000000000000, 0.0000000000000000000, 0.0000000000000000000 ) ) ;
#41 = EDGE_CURVE ( 'NONE', #187, #150, #137, .T. ) ;
#42 = PRODUCT_DEFINITION_FORMATION_WITH_SPECIFIED_SOURCE ( 'ANY', '', #239, .NOT_KNOWN. ) ;
#43 = CARTESIAN_POINT ( 'NONE',  ( 12.00000000000000000, 0.0000000000000000000, 5.000000000000000000 ) ) ;
#44 = VECTOR ( 'NONE', #103, 1000.000000000000000 ) ;
#45 = EDGE_LOOP ( 'NONE', ( #47, #147 ) ) ;
#46 = DIRECTION ( 'NONE',  ( -0.0000000000000000000, -0.0000000000000000000, -1.000000000000000000 ) ) ;
#47 = ORIENTED_EDGE ( 'NONE', *, *, #243, .F. ) ;
#48 = COLOUR_RGB ( '',1.000000000000000000, 1.000000000000000000, 1.000000000000000000 ) ;
#49 = DIRECTION ( 'NONE',  ( 0.0000000000000000000, 0.0000000000000000000, 1.000000000000000000 ) ) ;
#50 = APPLICATION_PROTOCOL_DEFINITION ( 'draft international standard', 'automotive_design', 1998, #163 ) ;
#51 = CARTESIAN_POINT ( 'NONE',  ( 3.500000000000004900, 12.49999999999999600, -3.000000000000000000 ) ) ;
#52 = DIRECTION ( 'NONE',  ( 0.0000000000000000000, 0.0000000000000000000, 1.000000000000000000 ) ) ;
#53 = VERTEX_POINT ( 'NONE', #89 ) ;
#54 = DIRECTION ( 'NONE',  ( 0.0000000000000000000, 0.0000000000000000000, -1.000000000000000000 ) ) ;
#55 = FACE_BOUND ( 'NONE', #45, .T. ) ;
#56 = EDGE_LOOP ( 'NONE', ( #249, #30, #66, #29 ) ) ;
#57 = DIRECTION ( 'NONE',  ( 1.000000000000000000, 0.0000000000000000000, 0.0000000000000000000 ) ) ;
#58 = CARTESIAN_POINT ( 'NONE',  ( 0.0000000000000000000, 25.00000000000000000, 5.000000000000000000 ) ) ;
#59 = FACE_OUTER_BOUND ( 'NONE', #265, .T. ) ;
#60 = ADVANCED_FACE ( 'NONE', ( #166 ), #93, .F. ) ;
#61 = PLANE ( 'NONE',  #171 ) ;
#62 =( NAMED_UNIT ( * ) SI_UNIT ( $, .STERADIAN. ) SOLID_ANGLE_UNIT ( ) );
#63 = DIRECTION ( 'NONE',  ( 0.0000000000000000000, 1.000000000000000000, 0.0000000000000000000 ) ) ;
#64 = AXIS2_PLACEMENT_3D ( 'NONE', #87, #85, #82 ) ;
#65 = PRODUCT_RELATED_PRODUCT_CATEGORY ( 'part', '', ( #239 ) ) ;
#66 = ORIENTED_EDGE ( 'NONE', *, *, #119, .T. ) ;
#67 = LINE ( 'NONE', #121, #44 ) ;
#68 = CIRCLE ( 'NONE', #99, 2.499999999999999600 ) ;
#69 = VECTOR ( 'NONE', #16, 1000.000000000000000 ) ;
#70 = CARTESIAN_POINT ( 'NONE',  ( 0.0000000000000000000, 0.0000000000000000000, 0.0000000000000000000 ) ) ;
#71 = ORIENTED_EDGE ( 'NONE', *, *, #248, .T. ) ;
#72 = CARTESIAN_POINT ( 'NONE',  ( 0.0000000000000000000, 0.0000000000000000000, 5.000000000000000000 ) ) ;
#73 = COLOUR_RGB ( '',1.000000000000000000, 1.000000000000000000, 1.000000000000000000 ) ;
#74 = CARTESIAN_POINT ( 'NONE',  ( 12.00000000000000000, 0.0000000000000000000, 0.0000000000000000000 ) ) ;
#75 = LINE ( 'NONE', #36, #69 ) ;
#76 = SHAPE_DEFINITION_REPRESENTATION ( #165, #14 ) ;
#77 = DIRECTION ( 'NONE',  ( 0.0000000000000000000, -0.0000000000000000000, 1.000000000000000000 ) ) ;
#78 = VERTEX_POINT ( 'NONE', #70 ) ;
#79 = PRODUCT_CONTEXT ( 'NONE', #161, 'mechanical' ) ;
#80 = DIRECTION ( 'NONE',  ( 0.0000000000000000000, 1.000000000000000000, 0.0000000000000000000 ) ) ;
#81 = LINE ( 'NONE', #22, #17 ) ;
#82 = DIRECTION ( 'NONE',  ( -1.000000000000000000, 0.0000000000000000000, 0.0000000000000000000 ) ) ;
#83 = FACE_OUTER_BOUND ( 'NONE', #190, .T. ) ;
#84 = AXIS2_PLACEMENT_3D ( 'NONE', #273, #271, #241 ) ;
#85 = DIRECTION ( 'NONE',  ( 0.0000000000000000000, 0.0000000000000000000, -1.000000000000000000 ) ) ;
#86 = FILL_AREA_STYLE_COLOUR ( '', #48 ) ;
#87 = CARTESIAN_POINT ( 'NONE',  ( 6.000000000000004400, 12.49999999999999600, 0.0000000000000000000 ) ) ;
#88 = CARTESIAN_POINT ( 'NONE',  ( 0.0000000000000000000, 0.0000000000000000000, 5.000000000000000000 ) ) ;
#89 = CARTESIAN_POINT ( 'NONE',  ( 12.00000000000000000, 25.00000000000000000, 0.0000000000000000000 ) ) ;
#90 = ORIENTED_EDGE ( 'NONE', *, *, #186, .F. ) ;
#91 = CARTESIAN_POINT ( 'NONE',  ( 12.00000000000000000, 0.0000000000000000000, 5.000000000000000000 ) ) ;
#92 = ORIENTED_EDGE ( 'NONE', *, *, #268, .F. ) ;
#93 = PLANE ( 'NONE',  #153 ) ;
#94 = AXIS2_PLACEMENT_3D ( 'NONE', #114, #111, #112 ) ;
#95 = DIRECTION ( 'NONE',  ( -1.000000000000000000, 0.0000000000000000000, -0.0000000000000000000 ) ) ;
#96 = DIRECTION ( 'NONE',  ( 0.0000000000000000000, 0.0000000000000000000, -1.000000000000000000 ) ) ;
#97 = ORIENTED_EDGE ( 'NONE', *, *, #229, .T. ) ;
#98 = ORIENTED_EDGE ( 'NONE', *, *, #215, .T. ) ;
#99 = AXIS2_PLACEMENT_3D ( 'NONE', #274, #276, #149 ) ;
#100 = CARTESIAN_POINT ( 'NONE',  ( 0.0000000000000000000, 25.00000000000000000, 0.0000000000000000000 ) ) ;
#101 = PLANE ( 'NONE',  #113 ) ;
#102 =( NAMED_UNIT ( * ) PLANE_ANGLE_UNIT ( ) SI_UNIT ( $, .RADIAN. ) );
#103 = DIRECTION ( 'NONE',  ( -1.000000000000000000, -0.0000000000000000000, -0.0000000000000000000 ) ) ;
#104 = ORIENTED_EDGE ( 'NONE', *, *, #174, .F. ) ;
#105 =( LENGTH_UNIT ( ) NAMED_UNIT ( * ) SI_UNIT ( .MILLI., .METRE. ) );
#106 = DIRECTION ( 'NONE',  ( -0.0000000000000000000, -0.0000000000000000000, 1.000000000000000000 ) ) ;
#107 = ORIENTED_EDGE ( 'NONE', *, *, #156, .F. ) ;
#108 = SURFACE_STYLE_USAGE ( .BOTH. , #126 ) ;
#109 = CARTESIAN_POINT ( 'NONE',  ( 0.0000000000000000000, 0.0000000000000000000, 5.000000000000000000 ) ) ;
#110 = ORIENTED_EDGE ( 'NONE', *, *, #229, .F. ) ;
#111 = DIRECTION ( 'NONE',  ( -0.0000000000000000000, -0.0000000000000000000, 1.000000000000000000 ) ) ;
#112 = DIRECTION ( 'NONE',  ( 1.000000000000000000, 0.0000000000000000000, 0.0000000000000000000 ) ) ;
#113 = AXIS2_PLACEMENT_3D ( 'NONE', #100, #96, #95 ) ;
#114 = CARTESIAN_POINT ( 'NONE',  ( 6.000000000000004400, 12.49999999999999600, -3.000000000000000000 ) ) ;
#115 = CARTESIAN_POINT ( 'NONE',  ( 8.500000000000003600, 12.49999999999999600, -3.000000000000000000 ) ) ;
#116 = VERTEX_POINT ( 'NONE', #74 ) ;
#117 = EDGE_LOOP ( 'NONE', ( #139, #208 ) ) ;
#118 = ORIENTED_EDGE ( 'NONE', *, *, #201, .T. ) ;
#119 = EDGE_CURVE ( 'NONE', #178, #247, #209, .T. ) ;
#120 = AXIS2_PLACEMENT_3D ( 'NONE', #184, #124, #192 ) ;
#121 = CARTESIAN_POINT ( 'NONE',  ( 0.0000000000000000000, 25.00000000000000000, 0.0000000000000000000 ) ) ;
#122 = ORIENTED_EDGE ( 'NONE', *, *, #260, .T. ) ;
#123 = CYLINDRICAL_SURFACE ( 'NONE', #94, 2.499999999999999600 ) ;
#124 = DIRECTION ( 'NONE',  ( -0.0000000000000000000, -0.0000000000000000000, 1.000000000000000000 ) ) ;
#125 = EDGE_LOOP ( 'NONE', ( #154, #205, #235, #107 ) ) ;
#126 = SURFACE_SIDE_STYLE ('',( #269 ) ) ;
#127 = FILL_AREA_STYLE ('',( #86 ) ) ;
#128 = FACE_OUTER_BOUND ( 'NONE', #196, .T. ) ;
#129 = VERTEX_POINT ( 'NONE', #58 ) ;
#130 = FACE_OUTER_BOUND ( 'NONE', #125, .T. ) ;
#131 = VECTOR ( 'NONE', #234, 1000.000000000000000 ) ;
#132 = ADVANCED_FACE ( 'NONE', ( #128 ), #61, .F. ) ;
#133 = EDGE_CURVE ( 'NONE', #39, #178, #264, .T. ) ;
#134 = LINE ( 'NONE', #21, #228 ) ;
#135 = STYLED_ITEM ( 'NONE', ( #152 ), #262 ) ;
#136 = VECTOR ( 'NONE', #204, 1000.000000000000000 ) ;
#137 = CIRCLE ( 'NONE', #64, 2.499999999999999600 ) ;
#138 = LINE ( 'NONE', #240, #131 ) ;
#139 = ORIENTED_EDGE ( 'NONE', *, *, #215, .F. ) ;
#140 = VECTOR ( 'NONE', #20, 1000.000000000000000 ) ;
#141 = ORIENTED_EDGE ( 'NONE', *, *, #156, .T. ) ;
#142 = FACE_OUTER_BOUND ( 'NONE', #56, .T. ) ;
#143 = CARTESIAN_POINT ( 'NONE',  ( 0.0000000000000000000, 25.00000000000000000, 5.000000000000000000 ) ) ;
#144 = EDGE_CURVE ( 'NONE', #178, #116, #223, .T. ) ;
#145 =( NAMED_UNIT ( * ) SI_UNIT ( $, .STERADIAN. ) SOLID_ANGLE_UNIT ( ) );
#146 = PRESENTATION_LAYER_ASSIGNMENT (  '', '', ( #135 ) ) ;
#147 = ORIENTED_EDGE ( 'NONE', *, *, #41, .F. ) ;
#148 = UNCERTAINTY_MEASURE_WITH_UNIT (LENGTH_MEASURE( 1.000000000000000100E-005 ), #105, 'distance_accuracy_value', 'NONE');
#149 = DIRECTION ( 'NONE',  ( -1.000000000000000000, 0.0000000000000000000, 0.0000000000000000000 ) ) ;
#150 = VERTEX_POINT ( 'NONE', #33 ) ;
#151 = ADVANCED_FACE ( 'NONE', ( #83 ), #35, .F. ) ;
#152 = PRESENTATION_STYLE_ASSIGNMENT (( #254 ) ) ;
#153 = AXIS2_PLACEMENT_3D ( 'NONE', #88, #80, #77 ) ;
#154 = ORIENTED_EDGE ( 'NONE', *, *, #201, .F. ) ;
#155 = ORIENTED_EDGE ( 'NONE', *, *, #158, .T. ) ;
#156 = EDGE_CURVE ( 'NONE', #78, #116, #134, .T. ) ;
#157 = MECHANICAL_DESIGN_GEOMETRIC_PRESENTATION_REPRESENTATION (  '', ( #135 ), #169 ) ;
#158 = EDGE_CURVE ( 'NONE', #247, #53, #75, .T. ) ;
#159 = ORIENTED_EDGE ( 'NONE', *, *, #10, .F. ) ;
#160 = ORIENTED_EDGE ( 'NONE', *, *, #23, .T. ) ;
#161 = APPLICATION_CONTEXT ( 'automotive_design' ) ;
#162 = UNCERTAINTY_MEASURE_WITH_UNIT (LENGTH_MEASURE( 1.000000000000000100E-005 ), #224, 'distance_accuracy_value', 'NONE');
#163 = APPLICATION_CONTEXT ( 'automotive_design' ) ;
#164 = ADVANCED_FACE ( 'NONE', ( #8 ), #13, .F. ) ;
#165 = PRODUCT_DEFINITION_SHAPE ( 'NONE', 'NONE',  #24 ) ;
#166 = FACE_OUTER_BOUND ( 'NONE', #263, .T. ) ;
#167 = ORIENTED_EDGE ( 'NONE', *, *, #158, .F. ) ;
#168 = EDGE_CURVE ( 'NONE', #129, #9, #197, .T. ) ;
#169 =( GEOMETRIC_REPRESENTATION_CONTEXT ( 3 ) GLOBAL_UNCERTAINTY_ASSIGNED_CONTEXT ( ( #162 ) ) GLOBAL_UNIT_ASSIGNED_CONTEXT ( ( #224, #238, #231 ) ) REPRESENTATION_CONTEXT ( 'NONE', 'WORKASPACE' ) );
#170 = VECTOR ( 'NONE', #40, 1000.000000000000000 ) ;
#171 = AXIS2_PLACEMENT_3D ( 'NONE', #72, #57, #54 ) ;
#172 = LINE ( 'NONE', #115, #218 ) ;
#173 = CIRCLE ( 'NONE', #237, 2.499999999999999600 ) ;
#174 = EDGE_CURVE ( 'NONE', #129, #39, #212, .T. ) ;
#175 =( GEOMETRIC_REPRESENTATION_CONTEXT ( 3 ) GLOBAL_UNCERTAINTY_ASSIGNED_CONTEXT ( ( #2 ) ) GLOBAL_UNIT_ASSIGNED_CONTEXT ( ( #183, #200, #145 ) ) REPRESENTATION_CONTEXT ( 'NONE', 'WORKASPACE' ) );
#176 = SURFACE_SIDE_STYLE ('',( #236 ) ) ;
#177 = CARTESIAN_POINT ( 'NONE',  ( 0.0000000000000000000, 25.00000000000000000, 0.0000000000000000000 ) ) ;
#178 = VERTEX_POINT ( 'NONE', #19 ) ;
#179 = DIRECTION ( 'NONE',  ( 0.0000000000000000000, 0.0000000000000000000, -1.000000000000000000 ) ) ;
#180 = CARTESIAN_POINT ( 'NONE',  ( 0.0000000000000000000, 0.0000000000000000000, 0.0000000000000000000 ) ) ;
#181 = CLOSED_SHELL ( 'NONE', ( #7, #132, #60, #151, #164, #199, #32, #222 ) ) ;
#182 = CARTESIAN_POINT ( 'NONE',  ( 8.500000000000003600, 12.49999999999999600, 5.000000000000000000 ) ) ;
#183 =( LENGTH_UNIT ( ) NAMED_UNIT ( * ) SI_UNIT ( .MILLI., .METRE. ) );
#184 = CARTESIAN_POINT ( 'NONE',  ( 6.000000000000004400, 12.49999999999999600, -3.000000000000000000 ) ) ;
#185 = VECTOR ( 'NONE', #63, 1000.000000000000000 ) ;
#186 = EDGE_CURVE ( 'NONE', #39, #78, #189, .T. ) ;
#187 = VERTEX_POINT ( 'NONE', #194 ) ;
#188 = ORIENTED_EDGE ( 'NONE', *, *, #41, .T. ) ;
#189 = LINE ( 'NONE', #207, #136 ) ;
#190 = EDGE_LOOP ( 'NONE', ( #71, #167, #198, #12 ) ) ;
#191 = DIRECTION ( 'NONE',  ( -0.0000000000000000000, -0.0000000000000000000, 1.000000000000000000 ) ) ;
#192 = DIRECTION ( 'NONE',  ( 1.000000000000000000, 0.0000000000000000000, 0.0000000000000000000 ) ) ;
#193 = AXIS2_PLACEMENT_3D ( 'NONE', #37, #28, #27 ) ;
#194 = CARTESIAN_POINT ( 'NONE',  ( 3.500000000000004900, 12.49999999999999600, 0.0000000000000000000 ) ) ;
#195 = APPLICATION_PROTOCOL_DEFINITION ( 'draft international standard', 'automotive_design', 1998, #161 ) ;
#196 = EDGE_LOOP ( 'NONE', ( #118, #90, #104, #213 ) ) ;
#197 = LINE ( 'NONE', #3, #140 ) ;
#198 = ORIENTED_EDGE ( 'NONE', *, *, #119, .F. ) ;
#199 = ADVANCED_FACE ( 'NONE', ( #266, #142 ), #206, .F. ) ;
#200 =( NAMED_UNIT ( * ) PLANE_ANGLE_UNIT ( ) SI_UNIT ( $, .RADIAN. ) );
#201 = EDGE_CURVE ( 'NONE', #9, #78, #138, .T. ) ;
#202 = STYLED_ITEM ( 'NONE', ( #259 ), #14 ) ;
#203 = ORIENTED_EDGE ( 'NONE', *, *, #10, .T. ) ;
#204 = DIRECTION ( 'NONE',  ( -0.0000000000000000000, -0.0000000000000000000, -1.000000000000000000 ) ) ;
#205 = ORIENTED_EDGE ( 'NONE', *, *, #23, .F. ) ;
#206 = PLANE ( 'NONE',  #250 ) ;
#207 = CARTESIAN_POINT ( 'NONE',  ( 0.0000000000000000000, 0.0000000000000000000, 5.000000000000000000 ) ) ;
#208 = ORIENTED_EDGE ( 'NONE', *, *, #260, .F. ) ;
#209 = LINE ( 'NONE', #91, #185 ) ;
#210 = VERTEX_POINT ( 'NONE', #182 ) ;
#211 = DIRECTION ( 'NONE',  ( 1.000000000000000000, 0.0000000000000000000, 0.0000000000000000000 ) ) ;
#212 = LINE ( 'NONE', #1, #255 ) ;
#213 = ORIENTED_EDGE ( 'NONE', *, *, #168, .T. ) ;
#214 = FILL_AREA_STYLE ('',( #253 ) ) ;
#215 = EDGE_CURVE ( 'NONE', #210, #252, #173, .T. ) ;
#216 = PRESENTATION_LAYER_ASSIGNMENT (  '', '', ( #202 ) ) ;
#217 = ORIENTED_EDGE ( 'NONE', *, *, #168, .F. ) ;
#218 = VECTOR ( 'NONE', #106, 1000.000000000000000 ) ;
#219 = CARTESIAN_POINT ( 'NONE',  ( 6.000000000000004400, 12.49999999999999600, 5.000000000000000000 ) ) ;
#220 = DIRECTION ( 'NONE',  ( -1.000000000000000000, -0.0000000000000000000, -0.0000000000000000000 ) ) ;
#221 = PRODUCT_DEFINITION_CONTEXT ( 'detailed design', #163, 'design' ) ;
#222 = ADVANCED_FACE ( 'NONE', ( #59 ), #4, .F. ) ;
#223 = LINE ( 'NONE', #43, #232 ) ;
#224 =( LENGTH_UNIT ( ) NAMED_UNIT ( * ) SI_UNIT ( .MILLI., .METRE. ) );
#225 = VECTOR ( 'NONE', #220, 1000.000000000000000 ) ;
#226 = AXIS2_PLACEMENT_3D ( 'NONE', #18, #6, #5 ) ;
#227 = CIRCLE ( 'NONE', #84, 2.499999999999999600 ) ;
#228 = VECTOR ( 'NONE', #25, 1000.000000000000000 ) ;
#229 = EDGE_CURVE ( 'NONE', #187, #252, #267, .T. ) ;
#230 = MECHANICAL_DESIGN_GEOMETRIC_PRESENTATION_REPRESENTATION (  '', ( #202 ), #245 ) ;
#231 =( NAMED_UNIT ( * ) SI_UNIT ( $, .STERADIAN. ) SOLID_ANGLE_UNIT ( ) );
#232 = VECTOR ( 'NONE', #46, 1000.000000000000000 ) ;
#233 = CARTESIAN_POINT ( 'NONE',  ( 0.0000000000000000000, 25.00000000000000000, 5.000000000000000000 ) ) ;
#234 = DIRECTION ( 'NONE',  ( -0.0000000000000000000, -1.000000000000000000, -0.0000000000000000000 ) ) ;
#235 = ORIENTED_EDGE ( 'NONE', *, *, #248, .F. ) ;
#236 = SURFACE_STYLE_FILL_AREA ( #214 ) ;
#237 = AXIS2_PLACEMENT_3D ( 'NONE', #219, #49, #211 ) ;
#238 =( NAMED_UNIT ( * ) PLANE_ANGLE_UNIT ( ) SI_UNIT ( $, .RADIAN. ) );
#239 = PRODUCT ( '096p0251205m6', '096p0251205m6', '', ( #79 ) ) ;
#240 = CARTESIAN_POINT ( 'NONE',  ( 0.0000000000000000000, 0.0000000000000000000, 0.0000000000000000000 ) ) ;
#241 = DIRECTION ( 'NONE',  ( 1.000000000000000000, 0.0000000000000000000, 0.0000000000000000000 ) ) ;
#242 = ORIENTED_EDGE ( 'NONE', *, *, #186, .T. ) ;
#243 = EDGE_CURVE ( 'NONE', #150, #187, #68, .T. ) ;
#244 = ORIENTED_EDGE ( 'NONE', *, *, #144, .F. ) ;
#245 =( GEOMETRIC_REPRESENTATION_CONTEXT ( 3 ) GLOBAL_UNCERTAINTY_ASSIGNED_CONTEXT ( ( #148 ) ) GLOBAL_UNIT_ASSIGNED_CONTEXT ( ( #105, #102, #62 ) ) REPRESENTATION_CONTEXT ( 'NONE', 'WORKASPACE' ) );
#246 = LINE ( 'NONE', #233, #225 ) ;
#247 = VERTEX_POINT ( 'NONE', #34 ) ;
#248 = EDGE_CURVE ( 'NONE', #116, #53, #81, .T. ) ;
#249 = ORIENTED_EDGE ( 'NONE', *, *, #174, .T. ) ;
#250 = AXIS2_PLACEMENT_3D ( 'NONE', #143, #179, #258 ) ;
#251 = CARTESIAN_POINT ( 'NONE',  ( 0.0000000000000000000, 0.0000000000000000000, 5.000000000000000000 ) ) ;
#252 = VERTEX_POINT ( 'NONE', #261 ) ;
#253 = FILL_AREA_STYLE_COLOUR ( '', #73 ) ;
#254 = SURFACE_STYLE_USAGE ( .BOTH. , #176 ) ;
#255 = VECTOR ( 'NONE', #272, 1000.000000000000000 ) ;
#256 = ORIENTED_EDGE ( 'NONE', *, *, #133, .F. ) ;
#257 = DIRECTION ( 'NONE',  ( 0.0000000000000000000, 1.000000000000000000, 0.0000000000000000000 ) ) ;
#258 = DIRECTION ( 'NONE',  ( -1.000000000000000000, 0.0000000000000000000, -0.0000000000000000000 ) ) ;
#259 = PRESENTATION_STYLE_ASSIGNMENT (( #108 ) ) ;
#260 = EDGE_CURVE ( 'NONE', #252, #210, #227, .T. ) ;
#261 = CARTESIAN_POINT ( 'NONE',  ( 3.500000000000004900, 12.49999999999999600, 5.000000000000000000 ) ) ;
#262 = MANIFOLD_SOLID_BREP ( 'Schnitt-Linear austragen1', #181 ) ;
#263 = EDGE_LOOP ( 'NONE', ( #141, #244, #256, #242 ) ) ;
#264 = LINE ( 'NONE', #251, #170 ) ;
#265 = EDGE_LOOP ( 'NONE', ( #110, #188, #203, #98 ) ) ;
#266 = FACE_BOUND ( 'NONE', #117, .T. ) ;
#267 = LINE ( 'NONE', #51, #270 ) ;
#268 = EDGE_CURVE ( 'NONE', #247, #129, #246, .T. ) ;
#269 = SURFACE_STYLE_FILL_AREA ( #127 ) ;
#270 = VECTOR ( 'NONE', #191, 1000.000000000000000 ) ;
#271 = DIRECTION ( 'NONE',  ( 0.0000000000000000000, 0.0000000000000000000, 1.000000000000000000 ) ) ;
#272 = DIRECTION ( 'NONE',  ( -0.0000000000000000000, -1.000000000000000000, -0.0000000000000000000 ) ) ;
#273 = CARTESIAN_POINT ( 'NONE',  ( 6.000000000000004400, 12.49999999999999600, 5.000000000000000000 ) ) ;
#274 = CARTESIAN_POINT ( 'NONE',  ( 6.000000000000004400, 12.49999999999999600, 0.0000000000000000000 ) ) ;
#275 = EDGE_LOOP ( 'NONE', ( #160, #217, #92, #155 ) ) ;
#276 = DIRECTION ( 'NONE',  ( 0.0000000000000000000, 0.0000000000000000000, -1.000000000000000000 ) ) ;
ENDSEC;
END-ISO-10303-21;
