ISO-10303-21;
HEADER;
FILE_DESCRIPTION (( 'STEP AP214' ),
    '1' );
FILE_NAME ('096p0221505m6.STEP',
    '2014-08-18T12:50:57',
    ( '' ),
    ( '' ),
    'SwSTEP 2.0',
    'SolidWorks 2014',
    '' );
FILE_SCHEMA (( 'AUTOMOTIVE_DESIGN' ));
ENDSEC;

DATA;
#1 = DIRECTION ( 'NONE',  ( 0.0000000000000000000, 0.0000000000000000000, 1.000000000000000000 ) ) ;
#2 =( NAMED_UNIT ( * ) SI_UNIT ( $, .STERADIAN. ) SOLID_ANGLE_UNIT ( ) );
#3 = EDGE_CURVE ( 'NONE', #270, #188, #162, .T. ) ;
#4 =( NAMED_UNIT ( * ) PLANE_ANGLE_UNIT ( ) SI_UNIT ( $, .RADIAN. ) );
#5 = CARTESIAN_POINT ( 'NONE',  ( 0.0000000000000000000, 0.0000000000000000000, 5.000000000000000000 ) ) ;
#6 = MECHANICAL_DESIGN_GEOMETRIC_PRESENTATION_REPRESENTATION (  '', ( #196 ), #166 ) ;
#7 =( LENGTH_UNIT ( ) NAMED_UNIT ( * ) SI_UNIT ( .MILLI., .METRE. ) );
#8 = SURFACE_STYLE_USAGE ( .BOTH. , #12 ) ;
#9 = EDGE_LOOP ( 'NONE', ( #104, #178, #205, #146 ) ) ;
#10 = PRODUCT_DEFINITION_SHAPE ( 'NONE', 'NONE',  #140 ) ;
#11 = AXIS2_PLACEMENT_3D ( 'NONE', #256, #255, #253 ) ;
#12 = SURFACE_SIDE_STYLE ('',( #264 ) ) ;
#13 = FILL_AREA_STYLE ('',( #31 ) ) ;
#14 = CARTESIAN_POINT ( 'NONE',  ( -7.499999999999996400, 11.00000000000000000, 0.0000000000000000000 ) ) ;
#15 = ORIENTED_EDGE ( 'NONE', *, *, #266, .F. ) ;
#16 = APPLICATION_CONTEXT ( 'automotive_design' ) ;
#17 = LINE ( 'NONE', #80, #67 ) ;
#18 = APPLICATION_PROTOCOL_DEFINITION ( 'draft international standard', 'automotive_design', 1998, #16 ) ;
#19 = DIRECTION ( 'NONE',  ( -1.000000000000000000, -1.156482317317872000E-016, -0.0000000000000000000 ) ) ;
#20 = ADVANCED_FACE ( 'NONE', ( #95 ), #212, .F. ) ;
#21 = AXIS2_PLACEMENT_3D ( 'NONE', #75, #244, #238 ) ;
#22 = FACE_OUTER_BOUND ( 'NONE', #172, .T. ) ;
#23 = ORIENTED_EDGE ( 'NONE', *, *, #60, .F. ) ;
#24 =( NAMED_UNIT ( * ) SI_UNIT ( $, .STERADIAN. ) SOLID_ANGLE_UNIT ( ) );
#25 = CARTESIAN_POINT ( 'NONE',  ( 7.500000000000003600, -10.99999999999999800, 0.0000000000000000000 ) ) ;
#26 =( NAMED_UNIT ( * ) PLANE_ANGLE_UNIT ( ) SI_UNIT ( $, .RADIAN. ) );
#27 = VECTOR ( 'NONE', #44, 1000.000000000000000 ) ;
#28 =( LENGTH_UNIT ( ) NAMED_UNIT ( * ) SI_UNIT ( .MILLI., .METRE. ) );
#29 = PRESENTATION_LAYER_ASSIGNMENT (  '', '', ( #196 ) ) ;
#30 = FACE_OUTER_BOUND ( 'NONE', #285, .T. ) ;
#31 = FILL_AREA_STYLE_COLOUR ( '', #157 ) ;
#32 = VECTOR ( 'NONE', #123, 1000.000000000000000 ) ;
#33 = DIRECTION ( 'NONE',  ( 1.000000000000000000, 1.156482317317871500E-016, 0.0000000000000000000 ) ) ;
#34 = EDGE_LOOP ( 'NONE', ( #112, #23, #233, #152 ) ) ;
#35 = DIRECTION ( 'NONE',  ( -0.0000000000000000000, -0.0000000000000000000, -1.000000000000000000 ) ) ;
#36 = LINE ( 'NONE', #199, #137 ) ;
#37 = CARTESIAN_POINT ( 'NONE',  ( -7.499999999999996400, -11.00000000000000000, 5.000000000000000000 ) ) ;
#38 = VECTOR ( 'NONE', #35, 1000.000000000000000 ) ;
#39 = EDGE_CURVE ( 'NONE', #102, #283, #17, .T. ) ;
#40 = VECTOR ( 'NONE', #69, 1000.000000000000000 ) ;
#41 = UNCERTAINTY_MEASURE_WITH_UNIT (LENGTH_MEASURE( 1.000000000000000100E-005 ), #28, 'distance_accuracy_value', 'NONE');
#42 = CARTESIAN_POINT ( 'NONE',  ( 7.499999999999998200, 11.00000000000000200, 5.000000000000000000 ) ) ;
#43 =( GEOMETRIC_REPRESENTATION_CONTEXT ( 3 ) GLOBAL_UNCERTAINTY_ASSIGNED_CONTEXT ( ( #242 ) ) GLOBAL_UNIT_ASSIGNED_CONTEXT ( ( #281, #279, #277 ) ) REPRESENTATION_CONTEXT ( 'NONE', 'WORKASPACE' ) );
#44 = DIRECTION ( 'NONE',  ( -2.365532012695646200E-016, 1.000000000000000000, 0.0000000000000000000 ) ) ;
#45 = ORIENTED_EDGE ( 'NONE', *, *, #286, .F. ) ;
#46 = CARTESIAN_POINT ( 'NONE',  ( 7.500000000000003600, -10.99999999999999800, 5.000000000000000000 ) ) ;
#47 = VECTOR ( 'NONE', #33, 1000.000000000000000 ) ;
#48 = DIRECTION ( 'NONE',  ( -0.0000000000000000000, -0.0000000000000000000, 1.000000000000000000 ) ) ;
#49 = AXIS2_PLACEMENT_3D ( 'NONE', #180, #177, #174 ) ;
#50 = EDGE_CURVE ( 'NONE', #118, #268, #239, .T. ) ;
#51 = VECTOR ( 'NONE', #128, 1000.000000000000000 ) ;
#52 = ADVANCED_FACE ( 'NONE', ( #251 ), #81, .F. ) ;
#53 = ORIENTED_EDGE ( 'NONE', *, *, #50, .F. ) ;
#54 = VECTOR ( 'NONE', #230, 1000.000000000000000 ) ;
#55 = CARTESIAN_POINT ( 'NONE',  ( 0.0000000000000000000, 0.0000000000000000000, 0.0000000000000000000 ) ) ;
#56 = LINE ( 'NONE', #37, #47 ) ;
#57 = CARTESIAN_POINT ( 'NONE',  ( 7.500000000000003600, -10.99999999999999800, 5.000000000000000000 ) ) ;
#58 = UNCERTAINTY_MEASURE_WITH_UNIT (LENGTH_MEASURE( 1.000000000000000100E-005 ), #147, 'distance_accuracy_value', 'NONE');
#59 = DIRECTION ( 'NONE',  ( 1.000000000000000000, 1.156482317317872000E-016, 0.0000000000000000000 ) ) ;
#60 = EDGE_CURVE ( 'NONE', #237, #138, #99, .T. ) ;
#61 = DIRECTION ( 'NONE',  ( 1.156482317317872000E-016, -1.000000000000000000, 0.0000000000000000000 ) ) ;
#62 = CARTESIAN_POINT ( 'NONE',  ( 7.499999999999998200, 11.00000000000000200, 0.0000000000000000000 ) ) ;
#63 = PLANE ( 'NONE',  #86 ) ;
#64 = CARTESIAN_POINT ( 'NONE',  ( -7.499999999999996400, 11.00000000000000000, 5.000000000000000000 ) ) ;
#65 = MECHANICAL_DESIGN_GEOMETRIC_PRESENTATION_REPRESENTATION (  '', ( #109 ), #43 ) ;
#66 = LINE ( 'NONE', #250, #54 ) ;
#67 = VECTOR ( 'NONE', #19, 1000.000000000000000 ) ;
#68 = MECHANICAL_DESIGN_GEOMETRIC_PRESENTATION_REPRESENTATION (  '', ( #193 ), #155 ) ;
#69 = DIRECTION ( 'NONE',  ( -0.0000000000000000000, -0.0000000000000000000, -1.000000000000000000 ) ) ;
#70 = PRESENTATION_LAYER_ASSIGNMENT (  '', '', ( #109 ) ) ;
#71 = ORIENTED_EDGE ( 'NONE', *, *, #120, .T. ) ;
#72 = DIRECTION ( 'NONE',  ( -1.000000000000000000, 0.0000000000000000000, -0.0000000000000000000 ) ) ;
#73 = UNCERTAINTY_MEASURE_WITH_UNIT (LENGTH_MEASURE( 1.000000000000000100E-005 ), #103, 'distance_accuracy_value', 'NONE');
#74 = VECTOR ( 'NONE', #228, 1000.000000000000000 ) ;
#75 = CARTESIAN_POINT ( 'NONE',  ( 0.0000000000000000000, 0.0000000000000000000, 5.000000000000000900 ) ) ;
#76 = VERTEX_POINT ( 'NONE', #272 ) ;
#77 = VECTOR ( 'NONE', #107, 1000.000000000000000 ) ;
#78 = CARTESIAN_POINT ( 'NONE',  ( 7.500000000000003600, -10.99999999999999800, 5.000000000000000000 ) ) ;
#79 = EDGE_CURVE ( 'NONE', #268, #118, #292, .T. ) ;
#80 = CARTESIAN_POINT ( 'NONE',  ( -7.499999999999996400, 11.00000000000000000, 5.000000000000000000 ) ) ;
#81 = CYLINDRICAL_SURFACE ( 'NONE', #271, 2.499999999999993300 ) ;
#82 = CARTESIAN_POINT ( 'NONE',  ( -7.499999999999996400, -11.00000000000000000, 0.0000000000000000000 ) ) ;
#83 = ORIENTED_EDGE ( 'NONE', *, *, #219, .F. ) ;
#84 = DIRECTION ( 'NONE',  ( 2.365532012695646200E-016, -1.000000000000000000, 0.0000000000000000000 ) ) ;
#85 = PLANE ( 'NONE',  #207 ) ;
#86 = AXIS2_PLACEMENT_3D ( 'NONE', #94, #61, #59 ) ;
#87 = LINE ( 'NONE', #127, #32 ) ;
#88 = DIRECTION ( 'NONE',  ( -1.000000000000000000, 0.0000000000000000000, -0.0000000000000000000 ) ) ;
#89 = DIRECTION ( 'NONE',  ( 0.0000000000000000000, 0.0000000000000000000, -1.000000000000000000 ) ) ;
#90 = DIRECTION ( 'NONE',  ( 0.0000000000000000000, 0.0000000000000000000, -1.000000000000000000 ) ) ;
#91 = EDGE_LOOP ( 'NONE', ( #226, #305, #45, #214 ) ) ;
#92 = EDGE_LOOP ( 'NONE', ( #231, #108 ) ) ;
#93 = CARTESIAN_POINT ( 'NONE',  ( -7.499999999999996400, -11.00000000000000000, 5.000000000000000000 ) ) ;
#94 = CARTESIAN_POINT ( 'NONE',  ( -7.499999999999996400, 11.00000000000000000, 5.000000000000000000 ) ) ;
#95 = FACE_OUTER_BOUND ( 'NONE', #163, .T. ) ;
#96 = PRESENTATION_LAYER_ASSIGNMENT (  '', '', ( #193 ) ) ;
#97 = DIRECTION ( 'NONE',  ( -0.0000000000000000000, -0.0000000000000000000, 1.000000000000000000 ) ) ;
#98 =( NAMED_UNIT ( * ) SI_UNIT ( $, .STERADIAN. ) SOLID_ANGLE_UNIT ( ) );
#99 = CIRCLE ( 'NONE', #11, 2.499999999999999100 ) ;
#100 = PRODUCT_DEFINITION_CONTEXT ( 'detailed design', #297, 'design' ) ;
#101 =( NAMED_UNIT ( * ) PLANE_ANGLE_UNIT ( ) SI_UNIT ( $, .RADIAN. ) );
#102 = VERTEX_POINT ( 'NONE', #110 ) ;
#103 =( LENGTH_UNIT ( ) NAMED_UNIT ( * ) SI_UNIT ( .MILLI., .METRE. ) );
#104 = ORIENTED_EDGE ( 'NONE', *, *, #211, .T. ) ;
#105 = SURFACE_STYLE_USAGE ( .BOTH. , #114 ) ;
#106 = AXIS2_PLACEMENT_3D ( 'NONE', #55, #1, #291 ) ;
#107 = DIRECTION ( 'NONE',  ( -1.000000000000000000, -1.156482317317872000E-016, -0.0000000000000000000 ) ) ;
#108 = ORIENTED_EDGE ( 'NONE', *, *, #165, .T. ) ;
#109 = STYLED_ITEM ( 'NONE', ( #220 ), #52 ) ;
#110 = CARTESIAN_POINT ( 'NONE',  ( 7.499999999999998200, 11.00000000000000200, 5.000000000000000000 ) ) ;
#111 = SHAPE_DEFINITION_REPRESENTATION ( #10, #223 ) ;
#112 = ORIENTED_EDGE ( 'NONE', *, *, #135, .F. ) ;
#113 = CARTESIAN_POINT ( 'NONE',  ( 7.500000000000003600, -10.99999999999999800, 5.000000000000000000 ) ) ;
#114 = SURFACE_SIDE_STYLE ('',( #248 ) ) ;
#115 = FILL_AREA_STYLE ('',( #119 ) ) ;
#116 = LINE ( 'NONE', #269, #74 ) ;
#117 = DIRECTION ( 'NONE',  ( -2.365532012695646200E-016, 1.000000000000000000, 0.0000000000000000000 ) ) ;
#118 = VERTEX_POINT ( 'NONE', #259 ) ;
#119 = FILL_AREA_STYLE_COLOUR ( '', #288 ) ;
#120 = EDGE_CURVE ( 'NONE', #188, #217, #66, .T. ) ;
#121 = FACE_OUTER_BOUND ( 'NONE', #91, .T. ) ;
#122 = CARTESIAN_POINT ( 'NONE',  ( -2.499999999999988500, 3.061616997868372300E-016, 5.000000000000000900 ) ) ;
#123 = DIRECTION ( 'NONE',  ( 1.000000000000000000, 1.156482317317871500E-016, 0.0000000000000000000 ) ) ;
#124 = ORIENTED_EDGE ( 'NONE', *, *, #79, .T. ) ;
#125 = PLANE ( 'NONE',  #262 ) ;
#126 = CARTESIAN_POINT ( 'NONE',  ( 2.499999999999999100, 0.0000000000000000000, 0.0000000000000000000 ) ) ;
#127 = CARTESIAN_POINT ( 'NONE',  ( -7.499999999999996400, -11.00000000000000000, 0.0000000000000000000 ) ) ;
#128 = DIRECTION ( 'NONE',  ( -0.0000000000000000000, -0.0000000000000000000, -1.000000000000000000 ) ) ;
#129 = PRODUCT ( '096p0221505m6', '096p0221505m6', '', ( #294 ) ) ;
#130 = AXIS2_PLACEMENT_3D ( 'NONE', #113, #194, #84 ) ;
#131 = EDGE_LOOP ( 'NONE', ( #161, #263, #124, #278 ) ) ;
#132 = CARTESIAN_POINT ( 'NONE',  ( -7.499999999999996400, -11.00000000000000000, 5.000000000000000000 ) ) ;
#133 = CARTESIAN_POINT ( 'NONE',  ( -7.499999999999996400, -11.00000000000000000, 0.0000000000000000000 ) ) ;
#134 = LINE ( 'NONE', #42, #38 ) ;
#135 = EDGE_CURVE ( 'NONE', #138, #268, #116, .T. ) ;
#136 = DIRECTION ( 'NONE',  ( 1.000000000000000000, 0.0000000000000000000, 0.0000000000000000000 ) ) ;
#137 = VECTOR ( 'NONE', #222, 1000.000000000000000 ) ;
#138 = VERTEX_POINT ( 'NONE', #225 ) ;
#139 = ORIENTED_EDGE ( 'NONE', *, *, #176, .T. ) ;
#140 = PRODUCT_DEFINITION ( 'UNKNOWN', '', #148, #100 ) ;
#141 = AXIS2_PLACEMENT_3D ( 'NONE', #301, #97, #296 ) ;
#142 = VECTOR ( 'NONE', #167, 1000.000000000000000 ) ;
#143 =( NAMED_UNIT ( * ) SI_UNIT ( $, .STERADIAN. ) SOLID_ANGLE_UNIT ( ) );
#144 = CLOSED_SHELL ( 'NONE', ( #52, #159, #187, #20, #295, #243, #258, #215 ) ) ;
#145 =( NAMED_UNIT ( * ) PLANE_ANGLE_UNIT ( ) SI_UNIT ( $, .RADIAN. ) );
#146 = ORIENTED_EDGE ( 'NONE', *, *, #39, .T. ) ;
#147 =( LENGTH_UNIT ( ) NAMED_UNIT ( * ) SI_UNIT ( .MILLI., .METRE. ) );
#148 = PRODUCT_DEFINITION_FORMATION_WITH_SPECIFIED_SOURCE ( 'ANY', '', #129, .NOT_KNOWN. ) ;
#149 = SURFACE_STYLE_USAGE ( .BOTH. , #151 ) ;
#150 = FACE_OUTER_BOUND ( 'NONE', #34, .T. ) ;
#151 = SURFACE_SIDE_STYLE ('',( #227 ) ) ;
#152 = ORIENTED_EDGE ( 'NONE', *, *, #50, .T. ) ;
#153 = ORIENTED_EDGE ( 'NONE', *, *, #303, .F. ) ;
#154 = FILL_AREA_STYLE ('',( #179 ) ) ;
#155 =( GEOMETRIC_REPRESENTATION_CONTEXT ( 3 ) GLOBAL_UNCERTAINTY_ASSIGNED_CONTEXT ( ( #173 ) ) GLOBAL_UNIT_ASSIGNED_CONTEXT ( ( #7, #4, #2 ) ) REPRESENTATION_CONTEXT ( 'NONE', 'WORKASPACE' ) );
#156 = DIRECTION ( 'NONE',  ( -0.0000000000000000000, -0.0000000000000000000, 1.000000000000000000 ) ) ;
#157 = COLOUR_RGB ( '',1.000000000000000000, 1.000000000000000000, 1.000000000000000000 ) ;
#158 = VECTOR ( 'NONE', #197, 1000.000000000000000 ) ;
#159 = ADVANCED_FACE ( 'NONE', ( #22 ), #209, .F. ) ;
#160 = CARTESIAN_POINT ( 'NONE',  ( -7.499999999999996400, 11.00000000000000000, 5.000000000000000000 ) ) ;
#161 = ORIENTED_EDGE ( 'NONE', *, *, #165, .F. ) ;
#162 = LINE ( 'NONE', #14, #77 ) ;
#163 = EDGE_LOOP ( 'NONE', ( #183, #252, #153, #246 ) ) ;
#164 = ORIENTED_EDGE ( 'NONE', *, *, #211, .F. ) ;
#165 = EDGE_CURVE ( 'NONE', #138, #237, #299, .T. ) ;
#166 =( GEOMETRIC_REPRESENTATION_CONTEXT ( 3 ) GLOBAL_UNCERTAINTY_ASSIGNED_CONTEXT ( ( #58 ) ) GLOBAL_UNIT_ASSIGNED_CONTEXT ( ( #147, #145, #143 ) ) REPRESENTATION_CONTEXT ( 'NONE', 'WORKASPACE' ) );
#167 = DIRECTION ( 'NONE',  ( -0.0000000000000000000, -1.000000000000000000, -0.0000000000000000000 ) ) ;
#168 = EDGE_LOOP ( 'NONE', ( #260, #15, #257, #139 ) ) ;
#169 = CARTESIAN_POINT ( 'NONE',  ( 0.0000000000000000000, 0.0000000000000000000, 5.000000000000000000 ) ) ;
#170 = LINE ( 'NONE', #57, #27 ) ;
#171 = PRESENTATION_LAYER_ASSIGNMENT (  '', '', ( #202 ) ) ;
#172 = EDGE_LOOP ( 'NONE', ( #71, #204, #164, #210 ) ) ;
#173 = UNCERTAINTY_MEASURE_WITH_UNIT (LENGTH_MEASURE( 1.000000000000000100E-005 ), #7, 'distance_accuracy_value', 'NONE');
#174 = DIRECTION ( 'NONE',  ( -1.000000000000000000, -1.156482317317871500E-016, 0.0000000000000000000 ) ) ;
#175 = FACE_BOUND ( 'NONE', #306, .T. ) ;
#176 = EDGE_CURVE ( 'NONE', #221, #217, #36, .T. ) ;
#177 = DIRECTION ( 'NONE',  ( -1.156482317317871500E-016, 1.000000000000000000, 0.0000000000000000000 ) ) ;
#178 = ORIENTED_EDGE ( 'NONE', *, *, #282, .T. ) ;
#179 = FILL_AREA_STYLE_COLOUR ( '', #224 ) ;
#180 = CARTESIAN_POINT ( 'NONE',  ( -7.499999999999996400, -11.00000000000000000, 5.000000000000000000 ) ) ;
#181 = PLANE ( 'NONE',  #49 ) ;
#182 = VECTOR ( 'NONE', #117, 1000.000000000000000 ) ;
#183 = ORIENTED_EDGE ( 'NONE', *, *, #286, .T. ) ;
#184 = EDGE_CURVE ( 'NONE', #237, #118, #249, .T. ) ;
#185 = CARTESIAN_POINT ( 'NONE',  ( -7.499999999999996400, 11.00000000000000000, 0.0000000000000000000 ) ) ;
#186 =( GEOMETRIC_REPRESENTATION_CONTEXT ( 3 ) GLOBAL_UNCERTAINTY_ASSIGNED_CONTEXT ( ( #41 ) ) GLOBAL_UNIT_ASSIGNED_CONTEXT ( ( #28, #26, #24 ) ) REPRESENTATION_CONTEXT ( 'NONE', 'WORKASPACE' ) );
#187 = ADVANCED_FACE ( 'NONE', ( #235 ), #181, .F. ) ;
#188 = VERTEX_POINT ( 'NONE', #185 ) ;
#189 = CARTESIAN_POINT ( 'NONE',  ( 2.499999999999993300, 0.0000000000000000000, 5.000000000000000000 ) ) ;
#190 = DIRECTION ( 'NONE',  ( 1.000000000000000000, 0.0000000000000000000, 0.0000000000000000000 ) ) ;
#191 = DIRECTION ( 'NONE',  ( -0.0000000000000000000, -0.0000000000000000000, 1.000000000000000000 ) ) ;
#192 = CARTESIAN_POINT ( 'NONE',  ( 0.0000000000000000000, 0.0000000000000000000, 0.0000000000000000000 ) ) ;
#193 = STYLED_ITEM ( 'NONE', ( #273 ), #223 ) ;
#194 = DIRECTION ( 'NONE',  ( -1.000000000000000000, -2.365532012695646200E-016, 0.0000000000000000000 ) ) ;
#195 = PRESENTATION_STYLE_ASSIGNMENT (( #105 ) ) ;
#196 = STYLED_ITEM ( 'NONE', ( #218 ), #215 ) ;
#197 = DIRECTION ( 'NONE',  ( -0.0000000000000000000, -0.0000000000000000000, 1.000000000000000000 ) ) ;
#198 = ORIENTED_EDGE ( 'NONE', *, *, #298, .T. ) ;
#199 = CARTESIAN_POINT ( 'NONE',  ( -7.499999999999996400, -11.00000000000000000, 5.000000000000000000 ) ) ;
#200 = DIRECTION ( 'NONE',  ( 0.0000000000000000000, 0.0000000000000000000, -1.000000000000000000 ) ) ;
#201 = CYLINDRICAL_SURFACE ( 'NONE', #213, 2.499999999999993300 ) ;
#202 = STYLED_ITEM ( 'NONE', ( #195 ), #234 ) ;
#203 = DIRECTION ( 'NONE',  ( 1.000000000000000000, 0.0000000000000000000, 0.0000000000000000000 ) ) ;
#204 = ORIENTED_EDGE ( 'NONE', *, *, #176, .F. ) ;
#205 = ORIENTED_EDGE ( 'NONE', *, *, #303, .T. ) ;
#206 = CARTESIAN_POINT ( 'NONE',  ( -7.499999999999996400, -11.00000000000000000, 5.000000000000000000 ) ) ;
#207 = AXIS2_PLACEMENT_3D ( 'NONE', #82, #90, #72 ) ;
#208 = CARTESIAN_POINT ( 'NONE',  ( -7.499999999999996400, -11.00000000000000000, 5.000000000000000000 ) ) ;
#209 = PLANE ( 'NONE',  #236 ) ;
#210 = ORIENTED_EDGE ( 'NONE', *, *, #219, .T. ) ;
#211 = EDGE_CURVE ( 'NONE', #283, #221, #265, .T. ) ;
#212 = PLANE ( 'NONE',  #130 ) ;
#213 = AXIS2_PLACEMENT_3D ( 'NONE', #169, #156, #136 ) ;
#214 = ORIENTED_EDGE ( 'NONE', *, *, #229, .F. ) ;
#215 = ADVANCED_FACE ( 'NONE', ( #150 ), #201, .F. ) ;
#216 = MECHANICAL_DESIGN_GEOMETRIC_PRESENTATION_REPRESENTATION (  '', ( #202 ), #254 ) ;
#217 = VERTEX_POINT ( 'NONE', #133 ) ;
#218 = PRESENTATION_STYLE_ASSIGNMENT (( #149 ) ) ;
#219 = EDGE_CURVE ( 'NONE', #283, #188, #241, .T. ) ;
#220 = PRESENTATION_STYLE_ASSIGNMENT (( #284 ) ) ;
#221 = VERTEX_POINT ( 'NONE', #132 ) ;
#222 = DIRECTION ( 'NONE',  ( -0.0000000000000000000, -0.0000000000000000000, -1.000000000000000000 ) ) ;
#223 = ADVANCED_BREP_SHAPE_REPRESENTATION ( '096p0221505m6', ( #234, #106 ), #186 ) ;
#224 = COLOUR_RGB ( '',1.000000000000000000, 1.000000000000000000, 1.000000000000000000 ) ;
#225 = CARTESIAN_POINT ( 'NONE',  ( -2.499999999999999100, 3.061616997868382200E-016, 0.0000000000000000000 ) ) ;
#226 = ORIENTED_EDGE ( 'NONE', *, *, #120, .F. ) ;
#227 = SURFACE_STYLE_FILL_AREA ( #154 ) ;
#228 = DIRECTION ( 'NONE',  ( -0.0000000000000000000, -0.0000000000000000000, 1.000000000000000000 ) ) ;
#229 = EDGE_CURVE ( 'NONE', #217, #76, #87, .T. ) ;
#230 = DIRECTION ( 'NONE',  ( -0.0000000000000000000, -1.000000000000000000, -0.0000000000000000000 ) ) ;
#231 = ORIENTED_EDGE ( 'NONE', *, *, #60, .T. ) ;
#232 = COLOUR_RGB ( '',1.000000000000000000, 1.000000000000000000, 1.000000000000000000 ) ;
#233 = ORIENTED_EDGE ( 'NONE', *, *, #184, .T. ) ;
#234 = MANIFOLD_SOLID_BREP ( 'M6 Gewindekernloch1', #144 ) ;
#235 = FACE_OUTER_BOUND ( 'NONE', #168, .T. ) ;
#236 = AXIS2_PLACEMENT_3D ( 'NONE', #206, #203, #200 ) ;
#237 = VERTEX_POINT ( 'NONE', #126 ) ;
#238 = DIRECTION ( 'NONE',  ( 1.000000000000000000, 0.0000000000000000000, 0.0000000000000000000 ) ) ;
#239 = CIRCLE ( 'NONE', #141, 2.499999999999988500 ) ;
#240 = FACE_OUTER_BOUND ( 'NONE', #9, .T. ) ;
#241 = LINE ( 'NONE', #160, #51 ) ;
#242 = UNCERTAINTY_MEASURE_WITH_UNIT (LENGTH_MEASURE( 1.000000000000000100E-005 ), #281, 'distance_accuracy_value', 'NONE');
#243 = ADVANCED_FACE ( 'NONE', ( #175, #240 ), #125, .F. ) ;
#244 = DIRECTION ( 'NONE',  ( -0.0000000000000000000, -0.0000000000000000000, 1.000000000000000000 ) ) ;
#245 = SURFACE_STYLE_FILL_AREA ( #289 ) ;
#246 = ORIENTED_EDGE ( 'NONE', *, *, #266, .T. ) ;
#247 = AXIS2_PLACEMENT_3D ( 'NONE', #192, #191, #190 ) ;
#248 = SURFACE_STYLE_FILL_AREA ( #115 ) ;
#249 = LINE ( 'NONE', #189, #158 ) ;
#250 = CARTESIAN_POINT ( 'NONE',  ( -7.499999999999996400, -11.00000000000000000, 0.0000000000000000000 ) ) ;
#251 = FACE_OUTER_BOUND ( 'NONE', #131, .T. ) ;
#252 = ORIENTED_EDGE ( 'NONE', *, *, #298, .F. ) ;
#253 = DIRECTION ( 'NONE',  ( 1.000000000000000000, 0.0000000000000000000, 0.0000000000000000000 ) ) ;
#254 =( GEOMETRIC_REPRESENTATION_CONTEXT ( 3 ) GLOBAL_UNCERTAINTY_ASSIGNED_CONTEXT ( ( #73 ) ) GLOBAL_UNIT_ASSIGNED_CONTEXT ( ( #103, #101, #98 ) ) REPRESENTATION_CONTEXT ( 'NONE', 'WORKASPACE' ) );
#255 = DIRECTION ( 'NONE',  ( -0.0000000000000000000, -0.0000000000000000000, 1.000000000000000000 ) ) ;
#256 = CARTESIAN_POINT ( 'NONE',  ( 0.0000000000000000000, 0.0000000000000000000, 0.0000000000000000000 ) ) ;
#257 = ORIENTED_EDGE ( 'NONE', *, *, #282, .F. ) ;
#258 = ADVANCED_FACE ( 'NONE', ( #274, #121 ), #85, .T. ) ;
#259 = CARTESIAN_POINT ( 'NONE',  ( 2.499999999999988500, 0.0000000000000000000, 5.000000000000000900 ) ) ;
#260 = ORIENTED_EDGE ( 'NONE', *, *, #229, .T. ) ;
#261 = ORIENTED_EDGE ( 'NONE', *, *, #39, .F. ) ;
#262 = AXIS2_PLACEMENT_3D ( 'NONE', #93, #89, #88 ) ;
#263 = ORIENTED_EDGE ( 'NONE', *, *, #135, .T. ) ;
#264 = SURFACE_STYLE_FILL_AREA ( #13 ) ;
#265 = LINE ( 'NONE', #208, #142 ) ;
#266 = EDGE_CURVE ( 'NONE', #276, #76, #280, .T. ) ;
#267 = PRODUCT_RELATED_PRODUCT_CATEGORY ( 'part', '', ( #129 ) ) ;
#268 = VERTEX_POINT ( 'NONE', #122 ) ;
#269 = CARTESIAN_POINT ( 'NONE',  ( -2.499999999999993300, 3.061616997868375300E-016, 5.000000000000000000 ) ) ;
#270 = VERTEX_POINT ( 'NONE', #62 ) ;
#271 = AXIS2_PLACEMENT_3D ( 'NONE', #5, #48, #275 ) ;
#272 = CARTESIAN_POINT ( 'NONE',  ( 7.500000000000003600, -10.99999999999999800, 0.0000000000000000000 ) ) ;
#273 = PRESENTATION_STYLE_ASSIGNMENT (( #8 ) ) ;
#274 = FACE_BOUND ( 'NONE', #92, .T. ) ;
#275 = DIRECTION ( 'NONE',  ( 1.000000000000000000, 0.0000000000000000000, 0.0000000000000000000 ) ) ;
#276 = VERTEX_POINT ( 'NONE', #46 ) ;
#277 =( NAMED_UNIT ( * ) SI_UNIT ( $, .STERADIAN. ) SOLID_ANGLE_UNIT ( ) );
#278 = ORIENTED_EDGE ( 'NONE', *, *, #184, .F. ) ;
#279 =( NAMED_UNIT ( * ) PLANE_ANGLE_UNIT ( ) SI_UNIT ( $, .RADIAN. ) );
#280 = LINE ( 'NONE', #78, #40 ) ;
#281 =( LENGTH_UNIT ( ) NAMED_UNIT ( * ) SI_UNIT ( .MILLI., .METRE. ) );
#282 = EDGE_CURVE ( 'NONE', #221, #276, #56, .T. ) ;
#283 = VERTEX_POINT ( 'NONE', #64 ) ;
#284 = SURFACE_STYLE_USAGE ( .BOTH. , #287 ) ;
#285 = EDGE_LOOP ( 'NONE', ( #290, #83, #261, #198 ) ) ;
#286 = EDGE_CURVE ( 'NONE', #76, #270, #293, .T. ) ;
#287 = SURFACE_SIDE_STYLE ('',( #245 ) ) ;
#288 = COLOUR_RGB ( '',1.000000000000000000, 1.000000000000000000, 1.000000000000000000 ) ;
#289 = FILL_AREA_STYLE ('',( #304 ) ) ;
#290 = ORIENTED_EDGE ( 'NONE', *, *, #3, .T. ) ;
#291 = DIRECTION ( 'NONE',  ( 1.000000000000000000, 0.0000000000000000000, 0.0000000000000000000 ) ) ;
#292 = CIRCLE ( 'NONE', #21, 2.499999999999988500 ) ;
#293 = LINE ( 'NONE', #25, #182 ) ;
#294 = PRODUCT_CONTEXT ( 'NONE', #16, 'mechanical' ) ;
#295 = ADVANCED_FACE ( 'NONE', ( #30 ), #63, .F. ) ;
#296 = DIRECTION ( 'NONE',  ( 1.000000000000000000, 0.0000000000000000000, 0.0000000000000000000 ) ) ;
#297 = APPLICATION_CONTEXT ( 'automotive_design' ) ;
#298 = EDGE_CURVE ( 'NONE', #102, #270, #134, .T. ) ;
#299 = CIRCLE ( 'NONE', #247, 2.499999999999999100 ) ;
#300 = ORIENTED_EDGE ( 'NONE', *, *, #79, .F. ) ;
#301 = CARTESIAN_POINT ( 'NONE',  ( 0.0000000000000000000, 0.0000000000000000000, 5.000000000000000900 ) ) ;
#302 = APPLICATION_PROTOCOL_DEFINITION ( 'draft international standard', 'automotive_design', 1998, #297 ) ;
#303 = EDGE_CURVE ( 'NONE', #276, #102, #170, .T. ) ;
#304 = FILL_AREA_STYLE_COLOUR ( '', #232 ) ;
#305 = ORIENTED_EDGE ( 'NONE', *, *, #3, .F. ) ;
#306 = EDGE_LOOP ( 'NONE', ( #53, #300 ) ) ;
ENDSEC;
END-ISO-10303-21;
