ISO-10303-21;
HEADER;
FILE_DESCRIPTION (( 'STEP AP214' ),
    '1' );
FILE_NAME ('096p0202006m8.STEP',
    '2014-08-18T12:49:38',
    ( '' ),
    ( '' ),
    'SwSTEP 2.0',
    'SolidWorks 2014',
    '' );
FILE_SCHEMA (( 'AUTOMOTIVE_DESIGN' ));
ENDSEC;

DATA;
#1 = AXIS2_PLACEMENT_3D ( 'NONE', #192, #151, #148 ) ;
#2 = CARTESIAN_POINT ( 'NONE',  ( 13.29999999999999900, 10.00000000000000000, 6.000000000000000000 ) ) ;
#3 = ORIENTED_EDGE ( 'NONE', *, *, #18, .F. ) ;
#4 = PLANE ( 'NONE',  #54 ) ;
#5 = EDGE_CURVE ( 'NONE', #258, #188, #135, .T. ) ;
#6 = FACE_OUTER_BOUND ( 'NONE', #252, .T. ) ;
#7 = MANIFOLD_SOLID_BREP ( 'Basis-Linear austragen', #24 ) ;
#8 = LINE ( 'NONE', #249, #199 ) ;
#9 = ORIENTED_EDGE ( 'NONE', *, *, #231, .T. ) ;
#10 = VERTEX_POINT ( 'NONE', #175 ) ;
#11 = UNCERTAINTY_MEASURE_WITH_UNIT (LENGTH_MEASURE( 1.000000000000000100E-005 ), #158, 'distance_accuracy_value', 'NONE');
#12 = LINE ( 'NONE', #84, #114 ) ;
#13 = ORIENTED_EDGE ( 'NONE', *, *, #189, .T. ) ;
#14 = ORIENTED_EDGE ( 'NONE', *, *, #245, .F. ) ;
#15 = LINE ( 'NONE', #259, #163 ) ;
#16 = DIRECTION ( 'NONE',  ( 0.0000000000000000000, -0.0000000000000000000, -1.000000000000000000 ) ) ;
#17 = ORIENTED_EDGE ( 'NONE', *, *, #233, .F. ) ;
#18 = EDGE_CURVE ( 'NONE', #173, #214, #215, .T. ) ;
#19 = DIRECTION ( 'NONE',  ( 0.0000000000000000000, -1.000000000000000000, 0.0000000000000000000 ) ) ;
#20 = LINE ( 'NONE', #246, #58 ) ;
#21 = EDGE_LOOP ( 'NONE', ( #34, #212, #26, #104 ) ) ;
#22 = CYLINDRICAL_SURFACE ( 'NONE', #177, 3.300000000000000700 ) ;
#23 = CARTESIAN_POINT ( 'NONE',  ( 0.0000000000000000000, 20.00000000000000000, 6.000000000000000000 ) ) ;
#24 = CLOSED_SHELL ( 'NONE', ( #161, #243, #42, #237, #266, #180, #133, #68 ) ) ;
#25 = AXIS2_PLACEMENT_3D ( 'NONE', #154, #153, #152 ) ;
#26 = ORIENTED_EDGE ( 'NONE', *, *, #204, .T. ) ;
#27 = CARTESIAN_POINT ( 'NONE',  ( 0.0000000000000000000, 20.00000000000000000, 6.000000000000000000 ) ) ;
#28 = CIRCLE ( 'NONE', #60, 3.300000000000000700 ) ;
#29 = CARTESIAN_POINT ( 'NONE',  ( 13.29999999999999900, 10.00000000000000000, 0.0000000000000000000 ) ) ;
#30 = ORIENTED_EDGE ( 'NONE', *, *, #238, .F. ) ;
#31 = ORIENTED_EDGE ( 'NONE', *, *, #5, .F. ) ;
#32 = EDGE_CURVE ( 'NONE', #43, #255, #97, .T. ) ;
#33 = AXIS2_PLACEMENT_3D ( 'NONE', #256, #251, #250 ) ;
#34 = ORIENTED_EDGE ( 'NONE', *, *, #273, .T. ) ;
#35 = FACE_OUTER_BOUND ( 'NONE', #190, .T. ) ;
#36 = AXIS2_PLACEMENT_3D ( 'NONE', #38, #264, #272 ) ;
#37 = PRODUCT ( '096p0202006m8', '096p0202006m8', '', ( #46 ) ) ;
#38 = CARTESIAN_POINT ( 'NONE',  ( 9.999999999999998200, 10.00000000000000000, 6.000000000000000000 ) ) ;
#39 = APPLICATION_PROTOCOL_DEFINITION ( 'draft international standard', 'automotive_design', 1998, #40 ) ;
#40 = APPLICATION_CONTEXT ( 'automotive_design' ) ;
#41 = VECTOR ( 'NONE', #244, 1000.000000000000000 ) ;
#42 = ADVANCED_FACE ( 'NONE', ( #222, #85 ), #142, .T. ) ;
#43 = VERTEX_POINT ( 'NONE', #137 ) ;
#44 = AXIS2_PLACEMENT_3D ( 'NONE', #138, #124, #122 ) ;
#45 = CARTESIAN_POINT ( 'NONE',  ( 20.00000000000000000, 20.00000000000000000, 0.0000000000000000000 ) ) ;
#46 = PRODUCT_CONTEXT ( 'NONE', #69, 'mechanical' ) ;
#47 = DIRECTION ( 'NONE',  ( 1.000000000000000000, 0.0000000000000000000, 0.0000000000000000000 ) ) ;
#48 = ORIENTED_EDGE ( 'NONE', *, *, #263, .F. ) ;
#49 = SURFACE_STYLE_FILL_AREA ( #198 ) ;
#50 = DIRECTION ( 'NONE',  ( 0.0000000000000000000, 0.0000000000000000000, 1.000000000000000000 ) ) ;
#51 = LINE ( 'NONE', #234, #41 ) ;
#52 = EDGE_LOOP ( 'NONE', ( #3, #162, #14, #88 ) ) ;
#53 =( NAMED_UNIT ( * ) SI_UNIT ( $, .STERADIAN. ) SOLID_ANGLE_UNIT ( ) );
#54 = AXIS2_PLACEMENT_3D ( 'NONE', #23, #19, #16 ) ;
#55 = EDGE_LOOP ( 'NONE', ( #155, #178, #208, #228 ) ) ;
#56 = FACE_OUTER_BOUND ( 'NONE', #55, .T. ) ;
#57 =( NAMED_UNIT ( * ) PLANE_ANGLE_UNIT ( ) SI_UNIT ( $, .RADIAN. ) );
#58 = VECTOR ( 'NONE', #187, 1000.000000000000000 ) ;
#59 =( LENGTH_UNIT ( ) NAMED_UNIT ( * ) SI_UNIT ( .MILLI., .METRE. ) );
#60 = AXIS2_PLACEMENT_3D ( 'NONE', #98, #95, #94 ) ;
#61 = VERTEX_POINT ( 'NONE', #45 ) ;
#62 = DIRECTION ( 'NONE',  ( -1.000000000000000000, 0.0000000000000000000, 0.0000000000000000000 ) ) ;
#63 = VERTEX_POINT ( 'NONE', #100 ) ;
#64 = SURFACE_STYLE_USAGE ( .BOTH. , #65 ) ;
#65 = SURFACE_SIDE_STYLE ('',( #82 ) ) ;
#66 = FILL_AREA_STYLE ('',( #79 ) ) ;
#67 = LINE ( 'NONE', #121, #132 ) ;
#68 = ADVANCED_FACE ( 'NONE', ( #56 ), #22, .F. ) ;
#69 = APPLICATION_CONTEXT ( 'automotive_design' ) ;
#70 = ORIENTED_EDGE ( 'NONE', *, *, #211, .F. ) ;
#71 = APPLICATION_PROTOCOL_DEFINITION ( 'draft international standard', 'automotive_design', 1998, #69 ) ;
#72 = ORIENTED_EDGE ( 'NONE', *, *, #218, .F. ) ;
#73 =( NAMED_UNIT ( * ) SI_UNIT ( $, .STERADIAN. ) SOLID_ANGLE_UNIT ( ) );
#74 = LINE ( 'NONE', #131, #184 ) ;
#75 =( NAMED_UNIT ( * ) PLANE_ANGLE_UNIT ( ) SI_UNIT ( $, .RADIAN. ) );
#76 = VECTOR ( 'NONE', #113, 1000.000000000000000 ) ;
#77 =( LENGTH_UNIT ( ) NAMED_UNIT ( * ) SI_UNIT ( .MILLI., .METRE. ) );
#78 = ORIENTED_EDGE ( 'NONE', *, *, #263, .T. ) ;
#79 = FILL_AREA_STYLE_COLOUR ( '', #147 ) ;
#80 = ORIENTED_EDGE ( 'NONE', *, *, #233, .T. ) ;
#81 = VERTEX_POINT ( 'NONE', #29 ) ;
#82 = SURFACE_STYLE_FILL_AREA ( #66 ) ;
#83 = DIRECTION ( 'NONE',  ( -0.0000000000000000000, -0.0000000000000000000, -1.000000000000000000 ) ) ;
#84 = CARTESIAN_POINT ( 'NONE',  ( 20.00000000000000000, 20.00000000000000000, 6.000000000000000000 ) ) ;
#85 = FACE_BOUND ( 'NONE', #125, .T. ) ;
#86 = CARTESIAN_POINT ( 'NONE',  ( 0.0000000000000000000, 0.0000000000000000000, 0.0000000000000000000 ) ) ;
#87 = AXIS2_PLACEMENT_3D ( 'NONE', #140, #134, #149 ) ;
#88 = ORIENTED_EDGE ( 'NONE', *, *, #157, .F. ) ;
#89 = CARTESIAN_POINT ( 'NONE',  ( 0.0000000000000000000, 0.0000000000000000000, 6.000000000000000000 ) ) ;
#90 = DIRECTION ( 'NONE',  ( -1.000000000000000000, -1.224606353822377300E-016, 0.0000000000000000000 ) ) ;
#91 = LINE ( 'NONE', #2, #101 ) ;
#92 = DIRECTION ( 'NONE',  ( -1.224606353822377300E-016, 1.000000000000000000, 0.0000000000000000000 ) ) ;
#93 =( NAMED_UNIT ( * ) SI_UNIT ( $, .STERADIAN. ) SOLID_ANGLE_UNIT ( ) );
#94 = DIRECTION ( 'NONE',  ( 1.000000000000000000, 0.0000000000000000000, 0.0000000000000000000 ) ) ;
#95 = DIRECTION ( 'NONE',  ( 0.0000000000000000000, 0.0000000000000000000, 1.000000000000000000 ) ) ;
#96 = ORIENTED_EDGE ( 'NONE', *, *, #238, .T. ) ;
#97 = LINE ( 'NONE', #130, #105 ) ;
#98 = CARTESIAN_POINT ( 'NONE',  ( 9.999999999999998200, 10.00000000000000000, 0.0000000000000000000 ) ) ;
#99 = ORIENTED_EDGE ( 'NONE', *, *, #18, .T. ) ;
#100 = CARTESIAN_POINT ( 'NONE',  ( 20.00000000000000000, 2.449212707644754500E-015, 0.0000000000000000000 ) ) ;
#101 = VECTOR ( 'NONE', #213, 1000.000000000000000 ) ;
#102 = CARTESIAN_POINT ( 'NONE',  ( 0.0000000000000000000, 0.0000000000000000000, 6.000000000000000000 ) ) ;
#103 = DIRECTION ( 'NONE',  ( -0.0000000000000000000, -1.000000000000000000, -0.0000000000000000000 ) ) ;
#104 = ORIENTED_EDGE ( 'NONE', *, *, #211, .T. ) ;
#105 = VECTOR ( 'NONE', #108, 1000.000000000000000 ) ;
#106 = CARTESIAN_POINT ( 'NONE',  ( 9.999999999999998200, 10.00000000000000000, 6.000000000000000000 ) ) ;
#107 = AXIS2_PLACEMENT_3D ( 'NONE', #165, #160, #159 ) ;
#108 = DIRECTION ( 'NONE',  ( 1.000000000000000000, 1.224606353822377300E-016, 0.0000000000000000000 ) ) ;
#109 = FACE_OUTER_BOUND ( 'NONE', #193, .T. ) ;
#110 = CARTESIAN_POINT ( 'NONE',  ( 13.29999999999999900, 10.00000000000000000, 6.000000000000000000 ) ) ;
#111 = SHAPE_DEFINITION_REPRESENTATION ( #185, #274 ) ;
#112 = VECTOR ( 'NONE', #207, 1000.000000000000000 ) ;
#113 = DIRECTION ( 'NONE',  ( 0.0000000000000000000, 1.000000000000000000, 0.0000000000000000000 ) ) ;
#114 = VECTOR ( 'NONE', #83, 1000.000000000000000 ) ;
#115 = CARTESIAN_POINT ( 'NONE',  ( 20.00000000000000000, 2.449212707644754500E-015, 0.0000000000000000000 ) ) ;
#116 = CARTESIAN_POINT ( 'NONE',  ( 20.00000000000000000, 2.449212707644754500E-015, 6.000000000000000000 ) ) ;
#117 = PRODUCT_DEFINITION_CONTEXT ( 'detailed design', #40, 'design' ) ;
#118 =( NAMED_UNIT ( * ) PLANE_ANGLE_UNIT ( ) SI_UNIT ( $, .RADIAN. ) );
#119 = VERTEX_POINT ( 'NONE', #27 ) ;
#120 = PLANE ( 'NONE',  #260 ) ;
#121 = CARTESIAN_POINT ( 'NONE',  ( 0.0000000000000000000, 20.00000000000000000, 6.000000000000000000 ) ) ;
#122 = DIRECTION ( 'NONE',  ( -1.000000000000000000, 0.0000000000000000000, -0.0000000000000000000 ) ) ;
#123 = ORIENTED_EDGE ( 'NONE', *, *, #218, .T. ) ;
#124 = DIRECTION ( 'NONE',  ( 0.0000000000000000000, 0.0000000000000000000, -1.000000000000000000 ) ) ;
#125 = EDGE_LOOP ( 'NONE', ( #78, #9 ) ) ;
#126 = DIRECTION ( 'NONE',  ( -0.0000000000000000000, -0.0000000000000000000, -1.000000000000000000 ) ) ;
#127 = COLOUR_RGB ( '',0.5294117647058823600, 0.5490196078431373000, 0.5490196078431373000 ) ;
#128 =( GEOMETRIC_REPRESENTATION_CONTEXT ( 3 ) GLOBAL_UNCERTAINTY_ASSIGNED_CONTEXT ( ( #11 ) ) GLOBAL_UNIT_ASSIGNED_CONTEXT ( ( #158, #118, #93 ) ) REPRESENTATION_CONTEXT ( 'NONE', 'WORKASPACE' ) );
#129 = ORIENTED_EDGE ( 'NONE', *, *, #32, .F. ) ;
#130 = CARTESIAN_POINT ( 'NONE',  ( 0.0000000000000000000, 0.0000000000000000000, 6.000000000000000000 ) ) ;
#131 = CARTESIAN_POINT ( 'NONE',  ( 0.0000000000000000000, 0.0000000000000000000, 0.0000000000000000000 ) ) ;
#132 = VECTOR ( 'NONE', #156, 1000.000000000000000 ) ;
#133 = ADVANCED_FACE ( 'NONE', ( #202 ), #4, .F. ) ;
#134 = DIRECTION ( 'NONE',  ( 0.0000000000000000000, 0.0000000000000000000, -1.000000000000000000 ) ) ;
#135 = CIRCLE ( 'NONE', #194, 3.300000000000000700 ) ;
#136 = ORIENTED_EDGE ( 'NONE', *, *, #248, .T. ) ;
#137 = CARTESIAN_POINT ( 'NONE',  ( 0.0000000000000000000, 0.0000000000000000000, 6.000000000000000000 ) ) ;
#138 = CARTESIAN_POINT ( 'NONE',  ( 0.0000000000000000000, 20.00000000000000000, 6.000000000000000000 ) ) ;
#139 = CIRCLE ( 'NONE', #107, 3.300000000000000700 ) ;
#140 = CARTESIAN_POINT ( 'NONE',  ( 0.0000000000000000000, 20.00000000000000000, 0.0000000000000000000 ) ) ;
#141 = ORIENTED_EDGE ( 'NONE', *, *, #273, .F. ) ;
#142 = PLANE ( 'NONE',  #87 ) ;
#143 = LINE ( 'NONE', #229, #235 ) ;
#144 = SURFACE_SIDE_STYLE ('',( #49 ) ) ;
#145 = VERTEX_POINT ( 'NONE', #275 ) ;
#146 = MECHANICAL_DESIGN_GEOMETRIC_PRESENTATION_REPRESENTATION (  '', ( #181 ), #128 ) ;
#147 = COLOUR_RGB ( '',0.5294117647058823600, 0.5490196078431373000, 0.5490196078431373000 ) ;
#148 = DIRECTION ( 'NONE',  ( 0.0000000000000000000, 0.0000000000000000000, -1.000000000000000000 ) ) ;
#149 = DIRECTION ( 'NONE',  ( -1.000000000000000000, 0.0000000000000000000, -0.0000000000000000000 ) ) ;
#150 = FACE_BOUND ( 'NONE', #239, .T. ) ;
#151 = DIRECTION ( 'NONE',  ( 1.000000000000000000, 0.0000000000000000000, 0.0000000000000000000 ) ) ;
#152 = DIRECTION ( 'NONE',  ( 1.000000000000000000, 0.0000000000000000000, 0.0000000000000000000 ) ) ;
#153 = DIRECTION ( 'NONE',  ( 0.0000000000000000000, 0.0000000000000000000, 1.000000000000000000 ) ) ;
#154 = CARTESIAN_POINT ( 'NONE',  ( 9.999999999999998200, 10.00000000000000000, 6.000000000000000000 ) ) ;
#155 = ORIENTED_EDGE ( 'NONE', *, *, #225, .F. ) ;
#156 = DIRECTION ( 'NONE',  ( -0.0000000000000000000, -0.0000000000000000000, -1.000000000000000000 ) ) ;
#157 = EDGE_CURVE ( 'NONE', #214, #63, #74, .T. ) ;
#158 =( LENGTH_UNIT ( ) NAMED_UNIT ( * ) SI_UNIT ( .MILLI., .METRE. ) );
#159 = DIRECTION ( 'NONE',  ( 1.000000000000000000, 0.0000000000000000000, 0.0000000000000000000 ) ) ;
#160 = DIRECTION ( 'NONE',  ( 0.0000000000000000000, 0.0000000000000000000, 1.000000000000000000 ) ) ;
#161 = ADVANCED_FACE ( 'NONE', ( #35 ), #179, .F. ) ;
#162 = ORIENTED_EDGE ( 'NONE', *, *, #189, .F. ) ;
#163 = VECTOR ( 'NONE', #232, 1000.000000000000000 ) ;
#164 = PRODUCT_RELATED_PRODUCT_CATEGORY ( 'part', '', ( #37 ) ) ;
#165 = CARTESIAN_POINT ( 'NONE',  ( 9.999999999999998200, 10.00000000000000000, 0.0000000000000000000 ) ) ;
#166 = PRESENTATION_LAYER_ASSIGNMENT (  '', '', ( #181 ) ) ;
#167 = PLANE ( 'NONE',  #44 ) ;
#168 = DIRECTION ( 'NONE',  ( -0.0000000000000000000, -0.0000000000000000000, -1.000000000000000000 ) ) ;
#169 = ORIENTED_EDGE ( 'NONE', *, *, #245, .T. ) ;
#170 = LINE ( 'NONE', #89, #186 ) ;
#171 = PLANE ( 'NONE',  #1 ) ;
#172 = PRODUCT_DEFINITION_FORMATION_WITH_SPECIFIED_SOURCE ( 'ANY', '', #37, .NOT_KNOWN. ) ;
#173 = VERTEX_POINT ( 'NONE', #254 ) ;
#174 = LINE ( 'NONE', #219, #112 ) ;
#175 = CARTESIAN_POINT ( 'NONE',  ( 6.699999999999996600, 10.00000000000000000, 0.0000000000000000000 ) ) ;
#176 = PRODUCT_DEFINITION ( 'UNKNOWN', '', #172, #117 ) ;
#177 = AXIS2_PLACEMENT_3D ( 'NONE', #106, #168, #62 ) ;
#178 = ORIENTED_EDGE ( 'NONE', *, *, #5, .T. ) ;
#179 = CYLINDRICAL_SURFACE ( 'NONE', #36, 3.300000000000000700 ) ;
#180 = ADVANCED_FACE ( 'NONE', ( #6 ), #262, .F. ) ;
#181 = STYLED_ITEM ( 'NONE', ( #267 ), #7 ) ;
#182 = AXIS2_PLACEMENT_3D ( 'NONE', #86, #50, #47 ) ;
#183 = EDGE_LOOP ( 'NONE', ( #13, #269, #70, #221 ) ) ;
#184 = VECTOR ( 'NONE', #270, 1000.000000000000000 ) ;
#185 = PRODUCT_DEFINITION_SHAPE ( 'NONE', 'NONE',  #176 ) ;
#186 = VECTOR ( 'NONE', #103, 1000.000000000000000 ) ;
#187 = DIRECTION ( 'NONE',  ( -0.0000000000000000000, -0.0000000000000000000, -1.000000000000000000 ) ) ;
#188 = VERTEX_POINT ( 'NONE', #253 ) ;
#189 = EDGE_CURVE ( 'NONE', #61, #173, #15, .T. ) ;
#190 = EDGE_LOOP ( 'NONE', ( #80, #276, #48, #261 ) ) ;
#191 = PRESENTATION_STYLE_ASSIGNMENT (( #64 ) ) ;
#192 = CARTESIAN_POINT ( 'NONE',  ( 0.0000000000000000000, 0.0000000000000000000, 6.000000000000000000 ) ) ;
#193 = EDGE_LOOP ( 'NONE', ( #99, #72, #141, #136 ) ) ;
#194 = AXIS2_PLACEMENT_3D ( 'NONE', #217, #224, #197 ) ;
#195 = SURFACE_STYLE_USAGE ( .BOTH. , #144 ) ;
#196 = ORIENTED_EDGE ( 'NONE', *, *, #268, .F. ) ;
#197 = DIRECTION ( 'NONE',  ( 1.000000000000000000, 0.0000000000000000000, 0.0000000000000000000 ) ) ;
#198 = FILL_AREA_STYLE ('',( #242 ) ) ;
#199 = VECTOR ( 'NONE', #126, 1000.000000000000000 ) ;
#200 = CARTESIAN_POINT ( 'NONE',  ( 0.0000000000000000000, 0.0000000000000000000, 0.0000000000000000000 ) ) ;
#201 = EDGE_LOOP ( 'NONE', ( #247, #30, #129, #123 ) ) ;
#202 = FACE_OUTER_BOUND ( 'NONE', #183, .T. ) ;
#203 = ORIENTED_EDGE ( 'NONE', *, *, #204, .F. ) ;
#204 = EDGE_CURVE ( 'NONE', #255, #145, #51, .T. ) ;
#205 = EDGE_CURVE ( 'NONE', #188, #10, #174, .T. ) ;
#206 = DIRECTION ( 'NONE',  ( -1.000000000000000000, -0.0000000000000000000, -0.0000000000000000000 ) ) ;
#207 = DIRECTION ( 'NONE',  ( -0.0000000000000000000, -0.0000000000000000000, -1.000000000000000000 ) ) ;
#208 = ORIENTED_EDGE ( 'NONE', *, *, #205, .T. ) ;
#209 = VECTOR ( 'NONE', #227, 1000.000000000000000 ) ;
#210 = UNCERTAINTY_MEASURE_WITH_UNIT (LENGTH_MEASURE( 1.000000000000000100E-005 ), #77, 'distance_accuracy_value', 'NONE');
#211 = EDGE_CURVE ( 'NONE', #145, #119, #143, .T. ) ;
#212 = ORIENTED_EDGE ( 'NONE', *, *, #32, .T. ) ;
#213 = DIRECTION ( 'NONE',  ( -0.0000000000000000000, -0.0000000000000000000, -1.000000000000000000 ) ) ;
#214 = VERTEX_POINT ( 'NONE', #200 ) ;
#215 = LINE ( 'NONE', #220, #209 ) ;
#216 =( GEOMETRIC_REPRESENTATION_CONTEXT ( 3 ) GLOBAL_UNCERTAINTY_ASSIGNED_CONTEXT ( ( #236 ) ) GLOBAL_UNIT_ASSIGNED_CONTEXT ( ( #59, #57, #53 ) ) REPRESENTATION_CONTEXT ( 'NONE', 'WORKASPACE' ) );
#217 = CARTESIAN_POINT ( 'NONE',  ( 9.999999999999998200, 10.00000000000000000, 6.000000000000000000 ) ) ;
#218 = EDGE_CURVE ( 'NONE', #43, #214, #20, .T. ) ;
#219 = CARTESIAN_POINT ( 'NONE',  ( 6.699999999999997500, 10.00000000000000000, 6.000000000000000000 ) ) ;
#220 = CARTESIAN_POINT ( 'NONE',  ( 0.0000000000000000000, 0.0000000000000000000, 0.0000000000000000000 ) ) ;
#221 = ORIENTED_EDGE ( 'NONE', *, *, #268, .T. ) ;
#222 = FACE_OUTER_BOUND ( 'NONE', #52, .T. ) ;
#223 = FACE_OUTER_BOUND ( 'NONE', #201, .T. ) ;
#224 = DIRECTION ( 'NONE',  ( 0.0000000000000000000, 0.0000000000000000000, 1.000000000000000000 ) ) ;
#225 = EDGE_CURVE ( 'NONE', #258, #81, #91, .T. ) ;
#226 = MECHANICAL_DESIGN_GEOMETRIC_PRESENTATION_REPRESENTATION (  '', ( #240 ), #216 ) ;
#227 = DIRECTION ( 'NONE',  ( -0.0000000000000000000, -1.000000000000000000, -0.0000000000000000000 ) ) ;
#228 = ORIENTED_EDGE ( 'NONE', *, *, #231, .F. ) ;
#229 = CARTESIAN_POINT ( 'NONE',  ( 0.0000000000000000000, 20.00000000000000000, 6.000000000000000000 ) ) ;
#230 = PRESENTATION_LAYER_ASSIGNMENT (  '', '', ( #240 ) ) ;
#231 = EDGE_CURVE ( 'NONE', #81, #10, #139, .T. ) ;
#232 = DIRECTION ( 'NONE',  ( -1.000000000000000000, -0.0000000000000000000, -0.0000000000000000000 ) ) ;
#233 = EDGE_CURVE ( 'NONE', #188, #258, #241, .T. ) ;
#234 = CARTESIAN_POINT ( 'NONE',  ( 20.00000000000000000, 2.449212707644754500E-015, 6.000000000000000000 ) ) ;
#235 = VECTOR ( 'NONE', #206, 1000.000000000000000 ) ;
#236 = UNCERTAINTY_MEASURE_WITH_UNIT (LENGTH_MEASURE( 1.000000000000000100E-005 ), #59, 'distance_accuracy_value', 'NONE');
#237 = ADVANCED_FACE ( 'NONE', ( #109 ), #171, .F. ) ;
#238 = EDGE_CURVE ( 'NONE', #255, #63, #8, .T. ) ;
#239 = EDGE_LOOP ( 'NONE', ( #17, #31 ) ) ;
#240 = STYLED_ITEM ( 'NONE', ( #191 ), #274 ) ;
#241 = CIRCLE ( 'NONE', #25, 3.300000000000000700 ) ;
#242 = FILL_AREA_STYLE_COLOUR ( '', #127 ) ;
#243 = ADVANCED_FACE ( 'NONE', ( #265, #150 ), #167, .F. ) ;
#244 = DIRECTION ( 'NONE',  ( 0.0000000000000000000, 1.000000000000000000, 0.0000000000000000000 ) ) ;
#245 = EDGE_CURVE ( 'NONE', #63, #61, #257, .T. ) ;
#246 = CARTESIAN_POINT ( 'NONE',  ( 0.0000000000000000000, 0.0000000000000000000, 6.000000000000000000 ) ) ;
#247 = ORIENTED_EDGE ( 'NONE', *, *, #157, .T. ) ;
#248 = EDGE_CURVE ( 'NONE', #119, #173, #67, .T. ) ;
#249 = CARTESIAN_POINT ( 'NONE',  ( 20.00000000000000000, 2.449212707644754500E-015, 6.000000000000000000 ) ) ;
#250 = DIRECTION ( 'NONE',  ( 0.0000000000000000000, 0.0000000000000000000, 1.000000000000000000 ) ) ;
#251 = DIRECTION ( 'NONE',  ( -1.000000000000000000, 0.0000000000000000000, 0.0000000000000000000 ) ) ;
#252 = EDGE_LOOP ( 'NONE', ( #169, #196, #203, #96 ) ) ;
#253 = CARTESIAN_POINT ( 'NONE',  ( 6.699999999999996600, 10.00000000000000000, 6.000000000000000000 ) ) ;
#254 = CARTESIAN_POINT ( 'NONE',  ( 0.0000000000000000000, 20.00000000000000000, 0.0000000000000000000 ) ) ;
#255 = VERTEX_POINT ( 'NONE', #116 ) ;
#256 = CARTESIAN_POINT ( 'NONE',  ( 20.00000000000000000, 2.449212707644754500E-015, 6.000000000000000000 ) ) ;
#257 = LINE ( 'NONE', #115, #76 ) ;
#258 = VERTEX_POINT ( 'NONE', #110 ) ;
#259 = CARTESIAN_POINT ( 'NONE',  ( 0.0000000000000000000, 20.00000000000000000, 0.0000000000000000000 ) ) ;
#260 = AXIS2_PLACEMENT_3D ( 'NONE', #102, #92, #90 ) ;
#261 = ORIENTED_EDGE ( 'NONE', *, *, #205, .F. ) ;
#262 = PLANE ( 'NONE',  #33 ) ;
#263 = EDGE_CURVE ( 'NONE', #10, #81, #28, .T. ) ;
#264 = DIRECTION ( 'NONE',  ( -0.0000000000000000000, -0.0000000000000000000, -1.000000000000000000 ) ) ;
#265 = FACE_OUTER_BOUND ( 'NONE', #21, .T. ) ;
#266 = ADVANCED_FACE ( 'NONE', ( #223 ), #120, .F. ) ;
#267 = PRESENTATION_STYLE_ASSIGNMENT (( #195 ) ) ;
#268 = EDGE_CURVE ( 'NONE', #145, #61, #12, .T. ) ;
#269 = ORIENTED_EDGE ( 'NONE', *, *, #248, .F. ) ;
#270 = DIRECTION ( 'NONE',  ( 1.000000000000000000, 1.224606353822377300E-016, 0.0000000000000000000 ) ) ;
#271 =( GEOMETRIC_REPRESENTATION_CONTEXT ( 3 ) GLOBAL_UNCERTAINTY_ASSIGNED_CONTEXT ( ( #210 ) ) GLOBAL_UNIT_ASSIGNED_CONTEXT ( ( #77, #75, #73 ) ) REPRESENTATION_CONTEXT ( 'NONE', 'WORKASPACE' ) );
#272 = DIRECTION ( 'NONE',  ( -1.000000000000000000, 0.0000000000000000000, 0.0000000000000000000 ) ) ;
#273 = EDGE_CURVE ( 'NONE', #119, #43, #170, .T. ) ;
#274 = ADVANCED_BREP_SHAPE_REPRESENTATION ( '096p0202006m8', ( #7, #182 ), #271 ) ;
#275 = CARTESIAN_POINT ( 'NONE',  ( 20.00000000000000000, 20.00000000000000000, 6.000000000000000000 ) ) ;
#276 = ORIENTED_EDGE ( 'NONE', *, *, #225, .T. ) ;
ENDSEC;
END-ISO-10303-21;
