ISO-10303-21;
HEADER;
FILE_DESCRIPTION (( 'STEP AP214' ),
    '1' );
FILE_NAME ('096p0202006m6.STEP',
    '2014-08-18T12:48:27',
    ( '' ),
    ( '' ),
    'SwSTEP 2.0',
    'SolidWorks 2014',
    '' );
FILE_SCHEMA (( 'AUTOMOTIVE_DESIGN' ));
ENDSEC;

DATA;
#1 = PLANE ( 'NONE',  #22 ) ;
#2 = EDGE_CURVE ( 'NONE', #299, #199, #7, .T. ) ;
#3 = APPLICATION_PROTOCOL_DEFINITION ( 'draft international standard', 'automotive_design', 1998, #84 ) ;
#4 = FACE_OUTER_BOUND ( 'NONE', #98, .T. ) ;
#5 =( NAMED_UNIT ( * ) SI_UNIT ( $, .STERADIAN. ) SOLID_ANGLE_UNIT ( ) );
#6 =( NAMED_UNIT ( * ) PLANE_ANGLE_UNIT ( ) SI_UNIT ( $, .RADIAN. ) );
#7 = LINE ( 'NONE', #164, #304 ) ;
#8 = AXIS2_PLACEMENT_3D ( 'NONE', #138, #126, #122 ) ;
#9 = PRODUCT_DEFINITION_CONTEXT ( 'detailed design', #284, 'design' ) ;
#10 = VECTOR ( 'NONE', #77, 1000.000000000000000 ) ;
#11 = EDGE_CURVE ( 'NONE', #117, #155, #292, .T. ) ;
#12 = DIRECTION ( 'NONE',  ( -3.469446951953614200E-016, 1.000000000000000000, 0.0000000000000000000 ) ) ;
#13 = CARTESIAN_POINT ( 'NONE',  ( 10.00000000000000400, -9.999999999999998200, 0.0000000000000000000 ) ) ;
#14 = CARTESIAN_POINT ( 'NONE',  ( 10.00000000000000400, -9.999999999999998200, 6.000000000000000000 ) ) ;
#15 = FILL_AREA_STYLE_COLOUR ( '', #235 ) ;
#16 = EDGE_CURVE ( 'NONE', #65, #279, #254, .T. ) ;
#17 = ORIENTED_EDGE ( 'NONE', *, *, #270, .T. ) ;
#18 =( LENGTH_UNIT ( ) NAMED_UNIT ( * ) SI_UNIT ( .MILLI., .METRE. ) );
#19 = CARTESIAN_POINT ( 'NONE',  ( 10.00000000000000400, -9.999999999999998200, 0.0000000000000000000 ) ) ;
#20 = DIRECTION ( 'NONE',  ( 3.469446951953613700E-016, -1.000000000000000000, 0.0000000000000000000 ) ) ;
#21 = COLOUR_RGB ( '',1.000000000000000000, 1.000000000000000000, 1.000000000000000000 ) ;
#22 = AXIS2_PLACEMENT_3D ( 'NONE', #74, #300, #296 ) ;
#23 = ORIENTED_EDGE ( 'NONE', *, *, #298, .F. ) ;
#24 = CARTESIAN_POINT ( 'NONE',  ( -9.999999999999996400, 10.00000000000000000, 0.0000000000000000000 ) ) ;
#25 = CARTESIAN_POINT ( 'NONE',  ( -9.999999999999996400, -10.00000000000000000, 6.000000000000000000 ) ) ;
#26 = SHAPE_DEFINITION_REPRESENTATION ( #294, #162 ) ;
#27 = FACE_OUTER_BOUND ( 'NONE', #106, .T. ) ;
#28 = CARTESIAN_POINT ( 'NONE',  ( -9.999999999999996400, 10.00000000000000000, 0.0000000000000000000 ) ) ;
#29 = CARTESIAN_POINT ( 'NONE',  ( -9.999999999999996400, -10.00000000000000000, 6.000000000000000000 ) ) ;
#30 = CARTESIAN_POINT ( 'NONE',  ( 2.499999999999993300, 0.0000000000000000000, 6.000000000000000000 ) ) ;
#31 = DIRECTION ( 'NONE',  ( -0.0000000000000000000, -0.0000000000000000000, -1.000000000000000000 ) ) ;
#32 = DIRECTION ( 'NONE',  ( 1.000000000000000000, 8.673617379884035500E-017, 0.0000000000000000000 ) ) ;
#33 = ORIENTED_EDGE ( 'NONE', *, *, #130, .T. ) ;
#34 = VERTEX_POINT ( 'NONE', #136 ) ;
#35 = EDGE_CURVE ( 'NONE', #199, #38, #234, .T. ) ;
#36 = UNCERTAINTY_MEASURE_WITH_UNIT (LENGTH_MEASURE( 1.000000000000000100E-005 ), #221, 'distance_accuracy_value', 'NONE');
#37 = DIRECTION ( 'NONE',  ( 1.000000000000000000, 0.0000000000000000000, 0.0000000000000000000 ) ) ;
#38 = VERTEX_POINT ( 'NONE', #94 ) ;
#39 = AXIS2_PLACEMENT_3D ( 'NONE', #239, #233, #232 ) ;
#40 = EDGE_CURVE ( 'NONE', #279, #264, #297, .T. ) ;
#41 = ADVANCED_FACE ( 'NONE', ( #261, #212 ), #1, .F. ) ;
#42 = DIRECTION ( 'NONE',  ( 0.0000000000000000000, 0.0000000000000000000, -1.000000000000000000 ) ) ;
#43 = DIRECTION ( 'NONE',  ( 1.000000000000000000, 0.0000000000000000000, 0.0000000000000000000 ) ) ;
#44 = ORIENTED_EDGE ( 'NONE', *, *, #11, .T. ) ;
#45 = CARTESIAN_POINT ( 'NONE',  ( 10.00000000000000400, -9.999999999999998200, 6.000000000000000000 ) ) ;
#46 = DIRECTION ( 'NONE',  ( -0.0000000000000000000, -1.000000000000000000, -0.0000000000000000000 ) ) ;
#47 = EDGE_CURVE ( 'NONE', #285, #264, #183, .T. ) ;
#48 = CARTESIAN_POINT ( 'NONE',  ( -9.999999999999996400, -10.00000000000000000, 6.000000000000000000 ) ) ;
#49 = DIRECTION ( 'NONE',  ( 1.000000000000000000, 8.673617379884035500E-017, 0.0000000000000000000 ) ) ;
#50 = UNCERTAINTY_MEASURE_WITH_UNIT (LENGTH_MEASURE( 1.000000000000000100E-005 ), #18, 'distance_accuracy_value', 'NONE');
#51 = PLANE ( 'NONE',  #202 ) ;
#52 = CARTESIAN_POINT ( 'NONE',  ( -9.999999999999996400, -10.00000000000000000, 0.0000000000000000000 ) ) ;
#53 = CIRCLE ( 'NONE', #159, 2.499999999999988500 ) ;
#54 = CLOSED_SHELL ( 'NONE', ( #111, #260, #207, #295, #171, #41, #145, #238 ) ) ;
#55 = ORIENTED_EDGE ( 'NONE', *, *, #67, .T. ) ;
#56 = STYLED_ITEM ( 'NONE', ( #288 ), #238 ) ;
#57 = DIRECTION ( 'NONE',  ( -1.000000000000000000, -3.469446951953613700E-016, 0.0000000000000000000 ) ) ;
#58 = CARTESIAN_POINT ( 'NONE',  ( -9.999999999999996400, -10.00000000000000000, 0.0000000000000000000 ) ) ;
#59 = EDGE_CURVE ( 'NONE', #153, #155, #241, .T. ) ;
#60 = CARTESIAN_POINT ( 'NONE',  ( -9.999999999999996400, 10.00000000000000000, 6.000000000000000000 ) ) ;
#61 = MANIFOLD_SOLID_BREP ( 'M6 Gewindekernloch1', #54 ) ;
#62 = PRESENTATION_STYLE_ASSIGNMENT (( #262 ) ) ;
#63 = ORIENTED_EDGE ( 'NONE', *, *, #266, .T. ) ;
#64 = CARTESIAN_POINT ( 'NONE',  ( 10.00000000000000400, -9.999999999999998200, 6.000000000000000000 ) ) ;
#65 = VERTEX_POINT ( 'NONE', #245 ) ;
#66 = DIRECTION ( 'NONE',  ( -0.0000000000000000000, -0.0000000000000000000, -1.000000000000000000 ) ) ;
#67 = EDGE_CURVE ( 'NONE', #34, #117, #127, .T. ) ;
#68 = CYLINDRICAL_SURFACE ( 'NONE', #190, 2.499999999999993300 ) ;
#69 = DIRECTION ( 'NONE',  ( 1.000000000000000000, 0.0000000000000000000, 0.0000000000000000000 ) ) ;
#70 =( NAMED_UNIT ( * ) SI_UNIT ( $, .STERADIAN. ) SOLID_ANGLE_UNIT ( ) );
#71 = ORIENTED_EDGE ( 'NONE', *, *, #140, .F. ) ;
#72 = FACE_OUTER_BOUND ( 'NONE', #263, .T. ) ;
#73 = PLANE ( 'NONE',  #223 ) ;
#74 = CARTESIAN_POINT ( 'NONE',  ( -9.999999999999996400, -10.00000000000000000, 6.000000000000000000 ) ) ;
#75 =( NAMED_UNIT ( * ) PLANE_ANGLE_UNIT ( ) SI_UNIT ( $, .RADIAN. ) );
#76 = ORIENTED_EDGE ( 'NONE', *, *, #200, .F. ) ;
#77 = DIRECTION ( 'NONE',  ( -0.0000000000000000000, -0.0000000000000000000, 1.000000000000000000 ) ) ;
#78 =( LENGTH_UNIT ( ) NAMED_UNIT ( * ) SI_UNIT ( .MILLI., .METRE. ) );
#79 = ORIENTED_EDGE ( 'NONE', *, *, #256, .T. ) ;
#80 = SURFACE_STYLE_USAGE ( .BOTH. , #82 ) ;
#81 = PRODUCT_DEFINITION_FORMATION_WITH_SPECIFIED_SOURCE ( 'ANY', '', #204, .NOT_KNOWN. ) ;
#82 = SURFACE_SIDE_STYLE ('',( #237 ) ) ;
#83 = CARTESIAN_POINT ( 'NONE',  ( 0.0000000000000000000, 0.0000000000000000000, 6.000000000000000000 ) ) ;
#84 = APPLICATION_CONTEXT ( 'automotive_design' ) ;
#85 = FILL_AREA_STYLE_COLOUR ( '', #163 ) ;
#86 = DIRECTION ( 'NONE',  ( -0.0000000000000000000, -0.0000000000000000000, 1.000000000000000000 ) ) ;
#87 = DIRECTION ( 'NONE',  ( -1.000000000000000000, -8.673617379884037900E-017, -0.0000000000000000000 ) ) ;
#88 = ORIENTED_EDGE ( 'NONE', *, *, #266, .F. ) ;
#89 = AXIS2_PLACEMENT_3D ( 'NONE', #97, #92, #91 ) ;
#90 = EDGE_LOOP ( 'NONE', ( #55, #33 ) ) ;
#91 = DIRECTION ( 'NONE',  ( -1.000000000000000000, -8.673617379884034200E-017, 0.0000000000000000000 ) ) ;
#92 = DIRECTION ( 'NONE',  ( -8.673617379884034200E-017, 1.000000000000000000, 0.0000000000000000000 ) ) ;
#93 = PLANE ( 'NONE',  #89 ) ;
#94 = CARTESIAN_POINT ( 'NONE',  ( -9.999999999999996400, 10.00000000000000000, 6.000000000000000000 ) ) ;
#95 = SURFACE_STYLE_FILL_AREA ( #188 ) ;
#96 = ORIENTED_EDGE ( 'NONE', *, *, #2, .T. ) ;
#97 = CARTESIAN_POINT ( 'NONE',  ( -9.999999999999996400, -10.00000000000000000, 6.000000000000000000 ) ) ;
#98 = EDGE_LOOP ( 'NONE', ( #273, #168, #129, #231 ) ) ;
#99 = DIRECTION ( 'NONE',  ( -1.000000000000000000, -8.673617379884037900E-017, -0.0000000000000000000 ) ) ;
#100 = PRODUCT_DEFINITION ( 'UNKNOWN', '', #81, #9 ) ;
#101 = DIRECTION ( 'NONE',  ( -0.0000000000000000000, -0.0000000000000000000, -1.000000000000000000 ) ) ;
#102 = FILL_AREA_STYLE ('',( #85 ) ) ;
#103 = CARTESIAN_POINT ( 'NONE',  ( 9.999999999999996400, 10.00000000000000200, 6.000000000000000000 ) ) ;
#104 = CARTESIAN_POINT ( 'NONE',  ( -9.999999999999996400, 10.00000000000000000, 6.000000000000000000 ) ) ;
#105 = CARTESIAN_POINT ( 'NONE',  ( 9.999999999999996400, 10.00000000000000200, 6.000000000000000000 ) ) ;
#106 = EDGE_LOOP ( 'NONE', ( #161, #249, #17, #210 ) ) ;
#107 = CARTESIAN_POINT ( 'NONE',  ( -9.999999999999996400, -10.00000000000000000, 0.0000000000000000000 ) ) ;
#108 = AXIS2_PLACEMENT_3D ( 'NONE', #203, #276, #176 ) ;
#109 = PRESENTATION_LAYER_ASSIGNMENT (  '', '', ( #56 ) ) ;
#110 = DIRECTION ( 'NONE',  ( 1.000000000000000000, 8.673617379884037900E-017, 0.0000000000000000000 ) ) ;
#111 = ADVANCED_FACE ( 'NONE', ( #277 ), #157, .F. ) ;
#112 = DIRECTION ( 'NONE',  ( 8.673617379884037900E-017, -1.000000000000000000, 0.0000000000000000000 ) ) ;
#113 = CARTESIAN_POINT ( 'NONE',  ( -9.999999999999996400, 10.00000000000000000, 6.000000000000000000 ) ) ;
#114 = UNCERTAINTY_MEASURE_WITH_UNIT (LENGTH_MEASURE( 1.000000000000000100E-005 ), #265, 'distance_accuracy_value', 'NONE');
#115 = PLANE ( 'NONE',  #141 ) ;
#116 = CARTESIAN_POINT ( 'NONE',  ( -2.499999999999988500, 3.061616997868372300E-016, 6.000000000000000900 ) ) ;
#117 = VERTEX_POINT ( 'NONE', #172 ) ;
#118 = LINE ( 'NONE', #13, #144 ) ;
#119 = CARTESIAN_POINT ( 'NONE',  ( -2.499999999999993300, 3.061616997868375300E-016, 6.000000000000000000 ) ) ;
#120 = PRESENTATION_STYLE_ASSIGNMENT (( #224 ) ) ;
#121 = ORIENTED_EDGE ( 'NONE', *, *, #40, .F. ) ;
#122 = DIRECTION ( 'NONE',  ( -1.000000000000000000, 0.0000000000000000000, -0.0000000000000000000 ) ) ;
#123 = EDGE_CURVE ( 'NONE', #38, #285, #182, .T. ) ;
#124 = MECHANICAL_DESIGN_GEOMETRIC_PRESENTATION_REPRESENTATION (  '', ( #56 ), #160 ) ;
#125 = VECTOR ( 'NONE', #31, 1000.000000000000000 ) ;
#126 = DIRECTION ( 'NONE',  ( 0.0000000000000000000, 0.0000000000000000000, -1.000000000000000000 ) ) ;
#127 = CIRCLE ( 'NONE', #198, 2.499999999999998700 ) ;
#128 = DIRECTION ( 'NONE',  ( 1.000000000000000000, 0.0000000000000000000, 0.0000000000000000000 ) ) ;
#129 = ORIENTED_EDGE ( 'NONE', *, *, #123, .F. ) ;
#130 = EDGE_CURVE ( 'NONE', #117, #34, #166, .T. ) ;
#131 = DIRECTION ( 'NONE',  ( -0.0000000000000000000, -0.0000000000000000000, 1.000000000000000000 ) ) ;
#132 = ORIENTED_EDGE ( 'NONE', *, *, #16, .F. ) ;
#133 = CARTESIAN_POINT ( 'NONE',  ( 0.0000000000000000000, 0.0000000000000000000, 6.000000000000000900 ) ) ;
#134 = PRODUCT_RELATED_PRODUCT_CATEGORY ( 'part', '', ( #204 ) ) ;
#135 = LINE ( 'NONE', #29, #219 ) ;
#136 = CARTESIAN_POINT ( 'NONE',  ( 2.499999999999998700, 0.0000000000000000000, 0.0000000000000000000 ) ) ;
#137 = ORIENTED_EDGE ( 'NONE', *, *, #16, .T. ) ;
#138 = CARTESIAN_POINT ( 'NONE',  ( -9.999999999999996400, -10.00000000000000000, 0.0000000000000000000 ) ) ;
#139 = FACE_OUTER_BOUND ( 'NONE', #236, .T. ) ;
#140 = EDGE_CURVE ( 'NONE', #155, #153, #53, .T. ) ;
#141 = AXIS2_PLACEMENT_3D ( 'NONE', #113, #112, #110 ) ;
#142 = ORIENTED_EDGE ( 'NONE', *, *, #140, .T. ) ;
#143 = DIRECTION ( 'NONE',  ( 1.000000000000000000, 0.0000000000000000000, 0.0000000000000000000 ) ) ;
#144 = VECTOR ( 'NONE', #12, 1000.000000000000000 ) ;
#145 = ADVANCED_FACE ( 'NONE', ( #191, #139 ), #170, .T. ) ;
#146 = UNCERTAINTY_MEASURE_WITH_UNIT (LENGTH_MEASURE( 1.000000000000000100E-005 ), #78, 'distance_accuracy_value', 'NONE');
#147 = COLOUR_RGB ( '',0.5294117647058823600, 0.5490196078431373000, 0.5490196078431373000 ) ;
#148 = DIRECTION ( 'NONE',  ( -0.0000000000000000000, -0.0000000000000000000, 1.000000000000000000 ) ) ;
#149 = EDGE_LOOP ( 'NONE', ( #222, #185, #96, #244 ) ) ;
#150 = AXIS2_PLACEMENT_3D ( 'NONE', #151, #148, #143 ) ;
#151 = CARTESIAN_POINT ( 'NONE',  ( 0.0000000000000000000, 0.0000000000000000000, 0.0000000000000000000 ) ) ;
#152 = VECTOR ( 'NONE', #257, 1000.000000000000000 ) ;
#153 = VERTEX_POINT ( 'NONE', #154 ) ;
#154 = CARTESIAN_POINT ( 'NONE',  ( 2.499999999999988500, 0.0000000000000000000, 6.000000000000000900 ) ) ;
#155 = VERTEX_POINT ( 'NONE', #116 ) ;
#156 =( GEOMETRIC_REPRESENTATION_CONTEXT ( 3 ) GLOBAL_UNCERTAINTY_ASSIGNED_CONTEXT ( ( #114 ) ) GLOBAL_UNIT_ASSIGNED_CONTEXT ( ( #265, #271, #274 ) ) REPRESENTATION_CONTEXT ( 'NONE', 'WORKASPACE' ) );
#157 = CYLINDRICAL_SURFACE ( 'NONE', #108, 2.499999999999993300 ) ;
#158 = ORIENTED_EDGE ( 'NONE', *, *, #270, .F. ) ;
#159 = AXIS2_PLACEMENT_3D ( 'NONE', #133, #131, #128 ) ;
#160 =( GEOMETRIC_REPRESENTATION_CONTEXT ( 3 ) GLOBAL_UNCERTAINTY_ASSIGNED_CONTEXT ( ( #146 ) ) GLOBAL_UNIT_ASSIGNED_CONTEXT ( ( #78, #75, #70 ) ) REPRESENTATION_CONTEXT ( 'NONE', 'WORKASPACE' ) );
#161 = ORIENTED_EDGE ( 'NONE', *, *, #11, .F. ) ;
#162 = ADVANCED_BREP_SHAPE_REPRESENTATION ( '096p0202006m6', ( #61, #220 ), #209 ) ;
#163 = COLOUR_RGB ( '',1.000000000000000000, 1.000000000000000000, 1.000000000000000000 ) ;
#164 = CARTESIAN_POINT ( 'NONE',  ( 10.00000000000000400, -9.999999999999998200, 6.000000000000000000 ) ) ;
#165 =( GEOMETRIC_REPRESENTATION_CONTEXT ( 3 ) GLOBAL_UNCERTAINTY_ASSIGNED_CONTEXT ( ( #218 ) ) GLOBAL_UNIT_ASSIGNED_CONTEXT ( ( #180, #179, #178 ) ) REPRESENTATION_CONTEXT ( 'NONE', 'WORKASPACE' ) );
#166 = CIRCLE ( 'NONE', #150, 2.499999999999998700 ) ;
#167 = SURFACE_STYLE_FILL_AREA ( #226 ) ;
#168 = ORIENTED_EDGE ( 'NONE', *, *, #47, .F. ) ;
#169 = ORIENTED_EDGE ( 'NONE', *, *, #47, .T. ) ;
#170 = PLANE ( 'NONE',  #8 ) ;
#171 = ADVANCED_FACE ( 'NONE', ( #283 ), #115, .F. ) ;
#172 = CARTESIAN_POINT ( 'NONE',  ( -2.499999999999998700, 3.061616997868381700E-016, 0.0000000000000000000 ) ) ;
#173 = CARTESIAN_POINT ( 'NONE',  ( -9.999999999999996400, -10.00000000000000000, 6.000000000000000000 ) ) ;
#174 = ORIENTED_EDGE ( 'NONE', *, *, #35, .F. ) ;
#175 = DIRECTION ( 'NONE',  ( -3.469446951953614200E-016, 1.000000000000000000, 0.0000000000000000000 ) ) ;
#176 = DIRECTION ( 'NONE',  ( 1.000000000000000000, 0.0000000000000000000, 0.0000000000000000000 ) ) ;
#177 = MECHANICAL_DESIGN_GEOMETRIC_PRESENTATION_REPRESENTATION (  '', ( #195 ), #165 ) ;
#178 =( NAMED_UNIT ( * ) SI_UNIT ( $, .STERADIAN. ) SOLID_ANGLE_UNIT ( ) );
#179 =( NAMED_UNIT ( * ) PLANE_ANGLE_UNIT ( ) SI_UNIT ( $, .RADIAN. ) );
#180 =( LENGTH_UNIT ( ) NAMED_UNIT ( * ) SI_UNIT ( .MILLI., .METRE. ) );
#181 = SURFACE_STYLE_USAGE ( .BOTH. , #187 ) ;
#182 = LINE ( 'NONE', #173, #152 ) ;
#183 = LINE ( 'NONE', #291, #196 ) ;
#184 = SURFACE_STYLE_FILL_AREA ( #253 ) ;
#185 = ORIENTED_EDGE ( 'NONE', *, *, #286, .T. ) ;
#186 = PRESENTATION_LAYER_ASSIGNMENT (  '', '', ( #195 ) ) ;
#187 = SURFACE_SIDE_STYLE ('',( #95 ) ) ;
#188 = FILL_AREA_STYLE ('',( #197 ) ) ;
#189 = DIRECTION ( 'NONE',  ( -0.0000000000000000000, -0.0000000000000000000, 1.000000000000000000 ) ) ;
#190 = AXIS2_PLACEMENT_3D ( 'NONE', #83, #86, #69 ) ;
#191 = FACE_BOUND ( 'NONE', #90, .T. ) ;
#192 = ORIENTED_EDGE ( 'NONE', *, *, #256, .F. ) ;
#193 = ORIENTED_EDGE ( 'NONE', *, *, #200, .T. ) ;
#194 = CARTESIAN_POINT ( 'NONE',  ( 0.0000000000000000000, 0.0000000000000000000, 0.0000000000000000000 ) ) ;
#195 = STYLED_ITEM ( 'NONE', ( #303 ), #111 ) ;
#196 = VECTOR ( 'NONE', #302, 1000.000000000000000 ) ;
#197 = FILL_AREA_STYLE_COLOUR ( '', #21 ) ;
#198 = AXIS2_PLACEMENT_3D ( 'NONE', #194, #189, #37 ) ;
#199 = VERTEX_POINT ( 'NONE', #105 ) ;
#200 = EDGE_CURVE ( 'NONE', #199, #65, #227, .T. ) ;
#201 = VECTOR ( 'NONE', #49, 1000.000000000000000 ) ;
#202 = AXIS2_PLACEMENT_3D ( 'NONE', #48, #43, #42 ) ;
#203 = CARTESIAN_POINT ( 'NONE',  ( 0.0000000000000000000, 0.0000000000000000000, 6.000000000000000000 ) ) ;
#204 = PRODUCT ( '096p0202006m6', '096p0202006m6', '', ( #282 ) ) ;
#205 = VECTOR ( 'NONE', #46, 1000.000000000000000 ) ;
#206 = ORIENTED_EDGE ( 'NONE', *, *, #130, .F. ) ;
#207 = ADVANCED_FACE ( 'NONE', ( #240 ), #93, .F. ) ;
#208 =( GEOMETRIC_REPRESENTATION_CONTEXT ( 3 ) GLOBAL_UNCERTAINTY_ASSIGNED_CONTEXT ( ( #36 ) ) GLOBAL_UNIT_ASSIGNED_CONTEXT ( ( #221, #217, #213 ) ) REPRESENTATION_CONTEXT ( 'NONE', 'WORKASPACE' ) );
#209 =( GEOMETRIC_REPRESENTATION_CONTEXT ( 3 ) GLOBAL_UNCERTAINTY_ASSIGNED_CONTEXT ( ( #50 ) ) GLOBAL_UNIT_ASSIGNED_CONTEXT ( ( #18, #6, #5 ) ) REPRESENTATION_CONTEXT ( 'NONE', 'WORKASPACE' ) );
#210 = ORIENTED_EDGE ( 'NONE', *, *, #59, .T. ) ;
#211 = LINE ( 'NONE', #30, #10 ) ;
#212 = FACE_OUTER_BOUND ( 'NONE', #149, .T. ) ;
#213 =( NAMED_UNIT ( * ) SI_UNIT ( $, .STERADIAN. ) SOLID_ANGLE_UNIT ( ) );
#214 = MECHANICAL_DESIGN_GEOMETRIC_PRESENTATION_REPRESENTATION (  '', ( #243 ), #208 ) ;
#215 = VECTOR ( 'NONE', #101, 1000.000000000000000 ) ;
#216 = ORIENTED_EDGE ( 'NONE', *, *, #286, .F. ) ;
#217 =( NAMED_UNIT ( * ) PLANE_ANGLE_UNIT ( ) SI_UNIT ( $, .RADIAN. ) );
#218 = UNCERTAINTY_MEASURE_WITH_UNIT (LENGTH_MEASURE( 1.000000000000000100E-005 ), #180, 'distance_accuracy_value', 'NONE');
#219 = VECTOR ( 'NONE', #32, 1000.000000000000000 ) ;
#220 = AXIS2_PLACEMENT_3D ( 'NONE', #275, #278, #280 ) ;
#221 =( LENGTH_UNIT ( ) NAMED_UNIT ( * ) SI_UNIT ( .MILLI., .METRE. ) );
#222 = ORIENTED_EDGE ( 'NONE', *, *, #123, .T. ) ;
#223 = AXIS2_PLACEMENT_3D ( 'NONE', #64, #57, #20 ) ;
#224 = SURFACE_STYLE_USAGE ( .BOTH. , #225 ) ;
#225 = SURFACE_SIDE_STYLE ('',( #167 ) ) ;
#226 = FILL_AREA_STYLE ('',( #290 ) ) ;
#227 = LINE ( 'NONE', #103, #215 ) ;
#228 = PRESENTATION_LAYER_ASSIGNMENT (  '', '', ( #243 ) ) ;
#229 = VECTOR ( 'NONE', #99, 1000.000000000000000 ) ;
#230 = EDGE_LOOP ( 'NONE', ( #79, #88, #216, #169 ) ) ;
#231 = ORIENTED_EDGE ( 'NONE', *, *, #250, .T. ) ;
#232 = DIRECTION ( 'NONE',  ( 1.000000000000000000, 0.0000000000000000000, 0.0000000000000000000 ) ) ;
#233 = DIRECTION ( 'NONE',  ( -0.0000000000000000000, -0.0000000000000000000, 1.000000000000000000 ) ) ;
#234 = LINE ( 'NONE', #104, #229 ) ;
#235 = COLOUR_RGB ( '',0.5294117647058823600, 0.5490196078431373000, 0.5490196078431373000 ) ;
#236 = EDGE_LOOP ( 'NONE', ( #121, #132, #23, #192 ) ) ;
#237 = SURFACE_STYLE_FILL_AREA ( #102 ) ;
#238 = ADVANCED_FACE ( 'NONE', ( #27 ), #68, .F. ) ;
#239 = CARTESIAN_POINT ( 'NONE',  ( 0.0000000000000000000, 0.0000000000000000000, 6.000000000000000900 ) ) ;
#240 = FACE_OUTER_BOUND ( 'NONE', #230, .T. ) ;
#241 = CIRCLE ( 'NONE', #39, 2.499999999999988500 ) ;
#242 = ORIENTED_EDGE ( 'NONE', *, *, #59, .F. ) ;
#243 = STYLED_ITEM ( 'NONE', ( #120 ), #61 ) ;
#244 = ORIENTED_EDGE ( 'NONE', *, *, #35, .T. ) ;
#245 = CARTESIAN_POINT ( 'NONE',  ( 9.999999999999996400, 10.00000000000000200, 0.0000000000000000000 ) ) ;
#246 = DIRECTION ( 'NONE',  ( -0.0000000000000000000, -0.0000000000000000000, 1.000000000000000000 ) ) ;
#247 = LINE ( 'NONE', #52, #201 ) ;
#248 = VECTOR ( 'NONE', #87, 1000.000000000000000 ) ;
#249 = ORIENTED_EDGE ( 'NONE', *, *, #67, .F. ) ;
#250 = EDGE_CURVE ( 'NONE', #38, #279, #252, .T. ) ;
#251 = MECHANICAL_DESIGN_GEOMETRIC_PRESENTATION_REPRESENTATION (  '', ( #281 ), #156 ) ;
#252 = LINE ( 'NONE', #60, #259 ) ;
#253 = FILL_AREA_STYLE ('',( #15 ) ) ;
#254 = LINE ( 'NONE', #28, #248 ) ;
#255 = EDGE_LOOP ( 'NONE', ( #242, #71 ) ) ;
#256 = EDGE_CURVE ( 'NONE', #264, #293, #247, .T. ) ;
#257 = DIRECTION ( 'NONE',  ( -0.0000000000000000000, -1.000000000000000000, -0.0000000000000000000 ) ) ;
#258 = SURFACE_SIDE_STYLE ('',( #184 ) ) ;
#259 = VECTOR ( 'NONE', #66, 1000.000000000000000 ) ;
#260 = ADVANCED_FACE ( 'NONE', ( #4 ), #51, .F. ) ;
#261 = FACE_BOUND ( 'NONE', #255, .T. ) ;
#262 = SURFACE_STYLE_USAGE ( .BOTH. , #258 ) ;
#263 = EDGE_LOOP ( 'NONE', ( #287, #76, #305, #63 ) ) ;
#264 = VERTEX_POINT ( 'NONE', #58 ) ;
#265 =( LENGTH_UNIT ( ) NAMED_UNIT ( * ) SI_UNIT ( .MILLI., .METRE. ) );
#266 = EDGE_CURVE ( 'NONE', #299, #293, #301, .T. ) ;
#267 = PRESENTATION_LAYER_ASSIGNMENT (  '', '', ( #281 ) ) ;
#268 = EDGE_LOOP ( 'NONE', ( #137, #272, #174, #193 ) ) ;
#269 = VECTOR ( 'NONE', #246, 1000.000000000000000 ) ;
#270 = EDGE_CURVE ( 'NONE', #34, #153, #211, .T. ) ;
#271 =( NAMED_UNIT ( * ) PLANE_ANGLE_UNIT ( ) SI_UNIT ( $, .RADIAN. ) );
#272 = ORIENTED_EDGE ( 'NONE', *, *, #250, .F. ) ;
#273 = ORIENTED_EDGE ( 'NONE', *, *, #40, .T. ) ;
#274 =( NAMED_UNIT ( * ) SI_UNIT ( $, .STERADIAN. ) SOLID_ANGLE_UNIT ( ) );
#275 = CARTESIAN_POINT ( 'NONE',  ( 0.0000000000000000000, 0.0000000000000000000, 0.0000000000000000000 ) ) ;
#276 = DIRECTION ( 'NONE',  ( -0.0000000000000000000, -0.0000000000000000000, 1.000000000000000000 ) ) ;
#277 = FACE_OUTER_BOUND ( 'NONE', #306, .T. ) ;
#278 = DIRECTION ( 'NONE',  ( 0.0000000000000000000, 0.0000000000000000000, 1.000000000000000000 ) ) ;
#279 = VERTEX_POINT ( 'NONE', #24 ) ;
#280 = DIRECTION ( 'NONE',  ( 1.000000000000000000, 0.0000000000000000000, 0.0000000000000000000 ) ) ;
#281 = STYLED_ITEM ( 'NONE', ( #62 ), #162 ) ;
#282 = PRODUCT_CONTEXT ( 'NONE', #84, 'mechanical' ) ;
#283 = FACE_OUTER_BOUND ( 'NONE', #268, .T. ) ;
#284 = APPLICATION_CONTEXT ( 'automotive_design' ) ;
#285 = VERTEX_POINT ( 'NONE', #25 ) ;
#286 = EDGE_CURVE ( 'NONE', #285, #299, #135, .T. ) ;
#287 = ORIENTED_EDGE ( 'NONE', *, *, #298, .T. ) ;
#288 = PRESENTATION_STYLE_ASSIGNMENT (( #80 ) ) ;
#289 = APPLICATION_PROTOCOL_DEFINITION ( 'draft international standard', 'automotive_design', 1998, #284 ) ;
#290 = FILL_AREA_STYLE_COLOUR ( '', #147 ) ;
#291 = CARTESIAN_POINT ( 'NONE',  ( -9.999999999999996400, -10.00000000000000000, 6.000000000000000000 ) ) ;
#292 = LINE ( 'NONE', #119, #269 ) ;
#293 = VERTEX_POINT ( 'NONE', #19 ) ;
#294 = PRODUCT_DEFINITION_SHAPE ( 'NONE', 'NONE',  #100 ) ;
#295 = ADVANCED_FACE ( 'NONE', ( #72 ), #73, .F. ) ;
#296 = DIRECTION ( 'NONE',  ( -1.000000000000000000, 0.0000000000000000000, -0.0000000000000000000 ) ) ;
#297 = LINE ( 'NONE', #107, #205 ) ;
#298 = EDGE_CURVE ( 'NONE', #293, #65, #118, .T. ) ;
#299 = VERTEX_POINT ( 'NONE', #14 ) ;
#300 = DIRECTION ( 'NONE',  ( 0.0000000000000000000, 0.0000000000000000000, -1.000000000000000000 ) ) ;
#301 = LINE ( 'NONE', #45, #125 ) ;
#302 = DIRECTION ( 'NONE',  ( -0.0000000000000000000, -0.0000000000000000000, -1.000000000000000000 ) ) ;
#303 = PRESENTATION_STYLE_ASSIGNMENT (( #181 ) ) ;
#304 = VECTOR ( 'NONE', #175, 1000.000000000000000 ) ;
#305 = ORIENTED_EDGE ( 'NONE', *, *, #2, .F. ) ;
#306 = EDGE_LOOP ( 'NONE', ( #206, #44, #142, #158 ) ) ;
ENDSEC;
END-ISO-10303-21;
