ISO-10303-21;
HEADER;
FILE_DESCRIPTION (( 'STEP AP214' ),
    '1' );
FILE_NAME ('096p0202006m5.STEP',
    '2014-08-18T12:47:24',
    ( '' ),
    ( '' ),
    'SwSTEP 2.0',
    'SolidWorks 2014',
    '' );
FILE_SCHEMA (( 'AUTOMOTIVE_DESIGN' ));
ENDSEC;

DATA;
#1 = MECHANICAL_DESIGN_GEOMETRIC_PRESENTATION_REPRESENTATION (  '', ( #135 ), #36 ) ;
#2 = ORIENTED_EDGE ( 'NONE', *, *, #66, .F. ) ;
#3 = CARTESIAN_POINT ( 'NONE',  ( 0.0000000000000000000, 20.00000000000000000, 6.000000000000000000 ) ) ;
#4 = VECTOR ( 'NONE', #203, 1000.000000000000000 ) ;
#5 = LINE ( 'NONE', #157, #48 ) ;
#6 = EDGE_CURVE ( 'NONE', #84, #26, #233, .T. ) ;
#7 = PRODUCT ( '096p0202006m5', '096p0202006m5', '', ( #22 ) ) ;
#8 = VERTEX_POINT ( 'NONE', #146 ) ;
#9 = PRODUCT_DEFINITION_FORMATION_WITH_SPECIFIED_SOURCE ( 'ANY', '', #7, .NOT_KNOWN. ) ;
#10 = AXIS2_PLACEMENT_3D ( 'NONE', #202, #199, #198 ) ;
#11 = VECTOR ( 'NONE', #124, 1000.000000000000000 ) ;
#12 =( GEOMETRIC_REPRESENTATION_CONTEXT ( 3 ) GLOBAL_UNCERTAINTY_ASSIGNED_CONTEXT ( ( #237 ) ) GLOBAL_UNIT_ASSIGNED_CONTEXT ( ( #64, #62, #58 ) ) REPRESENTATION_CONTEXT ( 'NONE', 'WORKASPACE' ) );
#13 = ORIENTED_EDGE ( 'NONE', *, *, #158, .F. ) ;
#14 = CARTESIAN_POINT ( 'NONE',  ( 7.999999999999998200, 10.00000000000000000, 6.000000000000000000 ) ) ;
#15 = DIRECTION ( 'NONE',  ( -0.0000000000000000000, -0.0000000000000000000, -1.000000000000000000 ) ) ;
#16 = FACE_OUTER_BOUND ( 'NONE', #132, .T. ) ;
#17 = CARTESIAN_POINT ( 'NONE',  ( 20.00000000000000000, 20.00000000000000000, 6.000000000000000000 ) ) ;
#18 = APPLICATION_PROTOCOL_DEFINITION ( 'draft international standard', 'automotive_design', 1998, #20 ) ;
#19 = CARTESIAN_POINT ( 'NONE',  ( 0.0000000000000000000, 20.00000000000000000, 6.000000000000000000 ) ) ;
#20 = APPLICATION_CONTEXT ( 'automotive_design' ) ;
#21 = VERTEX_POINT ( 'NONE', #156 ) ;
#22 = PRODUCT_CONTEXT ( 'NONE', #46, 'mechanical' ) ;
#23 = DIRECTION ( 'NONE',  ( 1.000000000000000000, 0.0000000000000000000, 0.0000000000000000000 ) ) ;
#24 = CARTESIAN_POINT ( 'NONE',  ( 20.00000000000000000, 2.449212707644754500E-015, 6.000000000000000000 ) ) ;
#25 = DIRECTION ( 'NONE',  ( 0.0000000000000000000, 0.0000000000000000000, 1.000000000000000000 ) ) ;
#26 = VERTEX_POINT ( 'NONE', #169 ) ;
#27 = LINE ( 'NONE', #207, #4 ) ;
#28 = DIRECTION ( 'NONE',  ( 1.000000000000000000, 0.0000000000000000000, 0.0000000000000000000 ) ) ;
#29 = LINE ( 'NONE', #142, #123 ) ;
#30 = AXIS2_PLACEMENT_3D ( 'NONE', #261, #131, #96 ) ;
#31 = PRESENTATION_STYLE_ASSIGNMENT (( #78 ) ) ;
#32 = ORIENTED_EDGE ( 'NONE', *, *, #130, .T. ) ;
#33 =( NAMED_UNIT ( * ) SI_UNIT ( $, .STERADIAN. ) SOLID_ANGLE_UNIT ( ) );
#34 = PRESENTATION_STYLE_ASSIGNMENT (( #41 ) ) ;
#35 = PRODUCT_RELATED_PRODUCT_CATEGORY ( 'part', '', ( #7 ) ) ;
#36 =( GEOMETRIC_REPRESENTATION_CONTEXT ( 3 ) GLOBAL_UNCERTAINTY_ASSIGNED_CONTEXT ( ( #230 ) ) GLOBAL_UNIT_ASSIGNED_CONTEXT ( ( #77, #76, #72 ) ) REPRESENTATION_CONTEXT ( 'NONE', 'WORKASPACE' ) );
#37 = ORIENTED_EDGE ( 'NONE', *, *, #220, .T. ) ;
#38 =( NAMED_UNIT ( * ) PLANE_ANGLE_UNIT ( ) SI_UNIT ( $, .RADIAN. ) );
#39 = LINE ( 'NONE', #210, #56 ) ;
#40 =( LENGTH_UNIT ( ) NAMED_UNIT ( * ) SI_UNIT ( .MILLI., .METRE. ) );
#41 = SURFACE_STYLE_USAGE ( .BOTH. , #43 ) ;
#42 = AXIS2_PLACEMENT_3D ( 'NONE', #217, #189, #50 ) ;
#43 = SURFACE_SIDE_STYLE ('',( #257 ) ) ;
#44 = CARTESIAN_POINT ( 'NONE',  ( 20.00000000000000000, 20.00000000000000000, 6.000000000000000000 ) ) ;
#45 = FILL_AREA_STYLE ('',( #97 ) ) ;
#46 = APPLICATION_CONTEXT ( 'automotive_design' ) ;
#47 = ORIENTED_EDGE ( 'NONE', *, *, #144, .T. ) ;
#48 = VECTOR ( 'NONE', #187, 1000.000000000000000 ) ;
#49 = EDGE_CURVE ( 'NONE', #254, #21, #219, .T. ) ;
#50 = DIRECTION ( 'NONE',  ( -1.000000000000000000, 0.0000000000000000000, 0.0000000000000000000 ) ) ;
#51 = EDGE_LOOP ( 'NONE', ( #143, #126 ) ) ;
#52 = CARTESIAN_POINT ( 'NONE',  ( 7.999999999999998200, 10.00000000000000000, 0.0000000000000000000 ) ) ;
#53 = PRESENTATION_LAYER_ASSIGNMENT (  '', '', ( #135 ) ) ;
#54 = ORIENTED_EDGE ( 'NONE', *, *, #212, .T. ) ;
#55 = APPLICATION_PROTOCOL_DEFINITION ( 'draft international standard', 'automotive_design', 1998, #46 ) ;
#56 = VECTOR ( 'NONE', #209, 1000.000000000000000 ) ;
#57 = VECTOR ( 'NONE', #129, 1000.000000000000000 ) ;
#58 =( NAMED_UNIT ( * ) SI_UNIT ( $, .STERADIAN. ) SOLID_ANGLE_UNIT ( ) );
#59 = AXIS2_PLACEMENT_3D ( 'NONE', #175, #160, #159 ) ;
#60 = PLANE ( 'NONE',  #204 ) ;
#61 = FACE_BOUND ( 'NONE', #51, .T. ) ;
#62 =( NAMED_UNIT ( * ) PLANE_ANGLE_UNIT ( ) SI_UNIT ( $, .RADIAN. ) );
#63 = ADVANCED_FACE ( 'NONE', ( #239 ), #127, .F. ) ;
#64 =( LENGTH_UNIT ( ) NAMED_UNIT ( * ) SI_UNIT ( .MILLI., .METRE. ) );
#65 = CARTESIAN_POINT ( 'NONE',  ( 0.0000000000000000000, 0.0000000000000000000, 6.000000000000000000 ) ) ;
#66 = EDGE_CURVE ( 'NONE', #121, #232, #179, .T. ) ;
#67 = CLOSED_SHELL ( 'NONE', ( #262, #155, #255, #71, #63, #191, #241, #180 ) ) ;
#68 = ORIENTED_EDGE ( 'NONE', *, *, #176, .T. ) ;
#69 = UNCERTAINTY_MEASURE_WITH_UNIT (LENGTH_MEASURE( 1.000000000000000100E-005 ), #40, 'distance_accuracy_value', 'NONE');
#70 = DIRECTION ( 'NONE',  ( -0.0000000000000000000, -0.0000000000000000000, -1.000000000000000000 ) ) ;
#71 = ADVANCED_FACE ( 'NONE', ( #190 ), #136, .F. ) ;
#72 =( NAMED_UNIT ( * ) SI_UNIT ( $, .STERADIAN. ) SOLID_ANGLE_UNIT ( ) );
#73 = ORIENTED_EDGE ( 'NONE', *, *, #176, .F. ) ;
#74 = AXIS2_PLACEMENT_3D ( 'NONE', #168, #164, #163 ) ;
#75 = FACE_BOUND ( 'NONE', #215, .T. ) ;
#76 =( NAMED_UNIT ( * ) PLANE_ANGLE_UNIT ( ) SI_UNIT ( $, .RADIAN. ) );
#77 =( LENGTH_UNIT ( ) NAMED_UNIT ( * ) SI_UNIT ( .MILLI., .METRE. ) );
#78 = SURFACE_STYLE_USAGE ( .BOTH. , #80 ) ;
#79 = VECTOR ( 'NONE', #235, 1000.000000000000000 ) ;
#80 = SURFACE_SIDE_STYLE ('',( #174 ) ) ;
#81 = CARTESIAN_POINT ( 'NONE',  ( 20.00000000000000000, 20.00000000000000000, 0.0000000000000000000 ) ) ;
#82 = ORIENTED_EDGE ( 'NONE', *, *, #6, .T. ) ;
#83 = FILL_AREA_STYLE ('',( #85 ) ) ;
#84 = VERTEX_POINT ( 'NONE', #19 ) ;
#85 = FILL_AREA_STYLE_COLOUR ( '', #240 ) ;
#86 = CARTESIAN_POINT ( 'NONE',  ( 0.0000000000000000000, 0.0000000000000000000, 0.0000000000000000000 ) ) ;
#87 = DIRECTION ( 'NONE',  ( -0.0000000000000000000, -0.0000000000000000000, -1.000000000000000000 ) ) ;
#88 = FACE_OUTER_BOUND ( 'NONE', #264, .T. ) ;
#89 = DIRECTION ( 'NONE',  ( -1.000000000000000000, 0.0000000000000000000, 0.0000000000000000000 ) ) ;
#90 = LINE ( 'NONE', #153, #192 ) ;
#91 = AXIS2_PLACEMENT_3D ( 'NONE', #118, #117, #115 ) ;
#92 = VERTEX_POINT ( 'NONE', #14 ) ;
#93 = DIRECTION ( 'NONE',  ( -1.000000000000000000, 0.0000000000000000000, -0.0000000000000000000 ) ) ;
#94 = DIRECTION ( 'NONE',  ( 0.0000000000000000000, 0.0000000000000000000, -1.000000000000000000 ) ) ;
#95 = CARTESIAN_POINT ( 'NONE',  ( 0.0000000000000000000, 20.00000000000000000, 0.0000000000000000000 ) ) ;
#96 = DIRECTION ( 'NONE',  ( -1.000000000000000000, -1.224606353822377300E-016, 0.0000000000000000000 ) ) ;
#97 = FILL_AREA_STYLE_COLOUR ( '', #221 ) ;
#98 = VERTEX_POINT ( 'NONE', #52 ) ;
#99 = VECTOR ( 'NONE', #246, 1000.000000000000000 ) ;
#100 = EDGE_CURVE ( 'NONE', #165, #92, #128, .T. ) ;
#101 = CARTESIAN_POINT ( 'NONE',  ( 20.00000000000000000, 2.449212707644754500E-015, 6.000000000000000000 ) ) ;
#102 = DIRECTION ( 'NONE',  ( 0.0000000000000000000, -0.0000000000000000000, -1.000000000000000000 ) ) ;
#103 = DIRECTION ( 'NONE',  ( 0.0000000000000000000, -1.000000000000000000, 0.0000000000000000000 ) ) ;
#104 = ORIENTED_EDGE ( 'NONE', *, *, #66, .T. ) ;
#105 = CARTESIAN_POINT ( 'NONE',  ( 9.999999999999998200, 10.00000000000000000, 6.000000000000000000 ) ) ;
#106 = CARTESIAN_POINT ( 'NONE',  ( 0.0000000000000000000, 20.00000000000000000, 6.000000000000000000 ) ) ;
#107 = DIRECTION ( 'NONE',  ( -0.0000000000000000000, -0.0000000000000000000, -1.000000000000000000 ) ) ;
#108 = CIRCLE ( 'NONE', #10, 2.000000000000000000 ) ;
#109 = STYLED_ITEM ( 'NONE', ( #34 ), #137 ) ;
#110 = ORIENTED_EDGE ( 'NONE', *, *, #212, .F. ) ;
#111 = PLANE ( 'NONE',  #150 ) ;
#112 = FACE_OUTER_BOUND ( 'NONE', #194, .T. ) ;
#113 = PLANE ( 'NONE',  #214 ) ;
#114 = EDGE_LOOP ( 'NONE', ( #263, #161, #268, #173 ) ) ;
#115 = DIRECTION ( 'NONE',  ( 1.000000000000000000, 0.0000000000000000000, 0.0000000000000000000 ) ) ;
#116 = VECTOR ( 'NONE', #252, 1000.000000000000000 ) ;
#117 = DIRECTION ( 'NONE',  ( 0.0000000000000000000, 0.0000000000000000000, 1.000000000000000000 ) ) ;
#118 = CARTESIAN_POINT ( 'NONE',  ( 9.999999999999998200, 10.00000000000000000, 0.0000000000000000000 ) ) ;
#119 = FACE_OUTER_BOUND ( 'NONE', #145, .T. ) ;
#120 = CARTESIAN_POINT ( 'NONE',  ( 0.0000000000000000000, 0.0000000000000000000, 6.000000000000000000 ) ) ;
#121 = VERTEX_POINT ( 'NONE', #17 ) ;
#122 = CARTESIAN_POINT ( 'NONE',  ( 0.0000000000000000000, 0.0000000000000000000, 6.000000000000000000 ) ) ;
#123 = VECTOR ( 'NONE', #138, 1000.000000000000000 ) ;
#124 = DIRECTION ( 'NONE',  ( -0.0000000000000000000, -1.000000000000000000, -0.0000000000000000000 ) ) ;
#125 = ORIENTED_EDGE ( 'NONE', *, *, #130, .F. ) ;
#126 = ORIENTED_EDGE ( 'NONE', *, *, #100, .F. ) ;
#127 = PLANE ( 'NONE',  #30 ) ;
#128 = CIRCLE ( 'NONE', #250, 2.000000000000000000 ) ;
#129 = DIRECTION ( 'NONE',  ( 1.000000000000000000, 1.224606353822377300E-016, 0.0000000000000000000 ) ) ;
#130 = EDGE_CURVE ( 'NONE', #232, #26, #166, .T. ) ;
#131 = DIRECTION ( 'NONE',  ( -1.224606353822377300E-016, 1.000000000000000000, 0.0000000000000000000 ) ) ;
#132 = EDGE_LOOP ( 'NONE', ( #201, #267, #152, #247 ) ) ;
#133 = CARTESIAN_POINT ( 'NONE',  ( 0.0000000000000000000, 0.0000000000000000000, 6.000000000000000000 ) ) ;
#134 = LINE ( 'NONE', #120, #57 ) ;
#135 = STYLED_ITEM ( 'NONE', ( #31 ), #266 ) ;
#136 = PLANE ( 'NONE',  #242 ) ;
#137 = ADVANCED_BREP_SHAPE_REPRESENTATION ( '096p0202006m5', ( #266, #249 ), #12 ) ;
#138 = DIRECTION ( 'NONE',  ( 0.0000000000000000000, 1.000000000000000000, 0.0000000000000000000 ) ) ;
#139 = ORIENTED_EDGE ( 'NONE', *, *, #193, .F. ) ;
#140 = EDGE_CURVE ( 'NONE', #26, #185, #197, .T. ) ;
#141 = LINE ( 'NONE', #154, #11 ) ;
#142 = CARTESIAN_POINT ( 'NONE',  ( 20.00000000000000000, 2.449212707644754500E-015, 0.0000000000000000000 ) ) ;
#143 = ORIENTED_EDGE ( 'NONE', *, *, #183, .F. ) ;
#144 = EDGE_CURVE ( 'NONE', #121, #84, #147, .T. ) ;
#145 = EDGE_LOOP ( 'NONE', ( #32, #275, #258, #104 ) ) ;
#146 = CARTESIAN_POINT ( 'NONE',  ( 11.99999999999999800, 10.00000000000000000, 0.0000000000000000000 ) ) ;
#147 = LINE ( 'NONE', #3, #79 ) ;
#148 = DIRECTION ( 'NONE',  ( 1.000000000000000000, 1.224606353822377300E-016, 0.0000000000000000000 ) ) ;
#149 = PRESENTATION_LAYER_ASSIGNMENT (  '', '', ( #109 ) ) ;
#150 = AXIS2_PLACEMENT_3D ( 'NONE', #95, #94, #93 ) ;
#151 = CARTESIAN_POINT ( 'NONE',  ( 0.0000000000000000000, 0.0000000000000000000, 0.0000000000000000000 ) ) ;
#152 = ORIENTED_EDGE ( 'NONE', *, *, #158, .T. ) ;
#153 = CARTESIAN_POINT ( 'NONE',  ( 0.0000000000000000000, 0.0000000000000000000, 0.0000000000000000000 ) ) ;
#154 = CARTESIAN_POINT ( 'NONE',  ( 0.0000000000000000000, 0.0000000000000000000, 6.000000000000000000 ) ) ;
#155 = ADVANCED_FACE ( 'NONE', ( #88, #61 ), #60, .F. ) ;
#156 = CARTESIAN_POINT ( 'NONE',  ( 20.00000000000000000, 2.449212707644754500E-015, 0.0000000000000000000 ) ) ;
#157 = CARTESIAN_POINT ( 'NONE',  ( 11.99999999999999800, 10.00000000000000000, 6.000000000000000000 ) ) ;
#158 = EDGE_CURVE ( 'NONE', #92, #98, #39, .T. ) ;
#159 = DIRECTION ( 'NONE',  ( 0.0000000000000000000, 0.0000000000000000000, 1.000000000000000000 ) ) ;
#160 = DIRECTION ( 'NONE',  ( -1.000000000000000000, 0.0000000000000000000, 0.0000000000000000000 ) ) ;
#161 = ORIENTED_EDGE ( 'NONE', *, *, #49, .F. ) ;
#162 = CARTESIAN_POINT ( 'NONE',  ( 0.0000000000000000000, 20.00000000000000000, 6.000000000000000000 ) ) ;
#163 = DIRECTION ( 'NONE',  ( 1.000000000000000000, 0.0000000000000000000, 0.0000000000000000000 ) ) ;
#164 = DIRECTION ( 'NONE',  ( 0.0000000000000000000, 0.0000000000000000000, 1.000000000000000000 ) ) ;
#165 = VERTEX_POINT ( 'NONE', #216 ) ;
#166 = LINE ( 'NONE', #259, #116 ) ;
#167 = EDGE_CURVE ( 'NONE', #98, #8, #108, .T. ) ;
#168 = CARTESIAN_POINT ( 'NONE',  ( 9.999999999999998200, 10.00000000000000000, 6.000000000000000000 ) ) ;
#169 = CARTESIAN_POINT ( 'NONE',  ( 0.0000000000000000000, 20.00000000000000000, 0.0000000000000000000 ) ) ;
#170 =( GEOMETRIC_REPRESENTATION_CONTEXT ( 3 ) GLOBAL_UNCERTAINTY_ASSIGNED_CONTEXT ( ( #69 ) ) GLOBAL_UNIT_ASSIGNED_CONTEXT ( ( #40, #38, #33 ) ) REPRESENTATION_CONTEXT ( 'NONE', 'WORKASPACE' ) );
#171 = DIRECTION ( 'NONE',  ( -0.0000000000000000000, -0.0000000000000000000, -1.000000000000000000 ) ) ;
#172 = EDGE_LOOP ( 'NONE', ( #224, #125, #178, #139 ) ) ;
#173 = ORIENTED_EDGE ( 'NONE', *, *, #238, .T. ) ;
#174 = SURFACE_STYLE_FILL_AREA ( #83 ) ;
#175 = CARTESIAN_POINT ( 'NONE',  ( 20.00000000000000000, 2.449212707644754500E-015, 6.000000000000000000 ) ) ;
#176 = EDGE_CURVE ( 'NONE', #254, #121, #27, .T. ) ;
#177 = PRODUCT_DEFINITION_SHAPE ( 'NONE', 'NONE',  #272 ) ;
#178 = ORIENTED_EDGE ( 'NONE', *, *, #200, .F. ) ;
#179 = LINE ( 'NONE', #44, #225 ) ;
#180 = ADVANCED_FACE ( 'NONE', ( #16 ), #253, .F. ) ;
#181 = PRODUCT_DEFINITION_CONTEXT ( 'detailed design', #20, 'design' ) ;
#182 = DIRECTION ( 'NONE',  ( 0.0000000000000000000, 0.0000000000000000000, -1.000000000000000000 ) ) ;
#183 = EDGE_CURVE ( 'NONE', #92, #165, #196, .T. ) ;
#184 = FACE_OUTER_BOUND ( 'NONE', #218, .T. ) ;
#185 = VERTEX_POINT ( 'NONE', #151 ) ;
#186 = MECHANICAL_DESIGN_GEOMETRIC_PRESENTATION_REPRESENTATION (  '', ( #109 ), #170 ) ;
#187 = DIRECTION ( 'NONE',  ( -0.0000000000000000000, -0.0000000000000000000, -1.000000000000000000 ) ) ;
#188 = PLANE ( 'NONE',  #59 ) ;
#189 = DIRECTION ( 'NONE',  ( -0.0000000000000000000, -0.0000000000000000000, -1.000000000000000000 ) ) ;
#190 = FACE_OUTER_BOUND ( 'NONE', #222, .T. ) ;
#191 = ADVANCED_FACE ( 'NONE', ( #112 ), #188, .F. ) ;
#192 = VECTOR ( 'NONE', #148, 1000.000000000000000 ) ;
#193 = EDGE_CURVE ( 'NONE', #185, #21, #90, .T. ) ;
#194 = EDGE_LOOP ( 'NONE', ( #208, #2, #73, #236 ) ) ;
#195 = EDGE_CURVE ( 'NONE', #165, #8, #5, .T. ) ;
#196 = CIRCLE ( 'NONE', #74, 2.000000000000000000 ) ;
#197 = LINE ( 'NONE', #274, #99 ) ;
#198 = DIRECTION ( 'NONE',  ( 1.000000000000000000, 0.0000000000000000000, 0.0000000000000000000 ) ) ;
#199 = DIRECTION ( 'NONE',  ( 0.0000000000000000000, 0.0000000000000000000, 1.000000000000000000 ) ) ;
#200 = EDGE_CURVE ( 'NONE', #21, #232, #29, .T. ) ;
#201 = ORIENTED_EDGE ( 'NONE', *, *, #195, .F. ) ;
#202 = CARTESIAN_POINT ( 'NONE',  ( 9.999999999999998200, 10.00000000000000000, 0.0000000000000000000 ) ) ;
#203 = DIRECTION ( 'NONE',  ( 0.0000000000000000000, 1.000000000000000000, 0.0000000000000000000 ) ) ;
#204 = AXIS2_PLACEMENT_3D ( 'NONE', #231, #227, #223 ) ;
#205 = SHAPE_DEFINITION_REPRESENTATION ( #177, #137 ) ;
#206 = VECTOR ( 'NONE', #107, 1000.000000000000000 ) ;
#207 = CARTESIAN_POINT ( 'NONE',  ( 20.00000000000000000, 2.449212707644754500E-015, 6.000000000000000000 ) ) ;
#208 = ORIENTED_EDGE ( 'NONE', *, *, #200, .T. ) ;
#209 = DIRECTION ( 'NONE',  ( -0.0000000000000000000, -0.0000000000000000000, -1.000000000000000000 ) ) ;
#210 = CARTESIAN_POINT ( 'NONE',  ( 7.999999999999998200, 10.00000000000000000, 6.000000000000000000 ) ) ;
#211 = VERTEX_POINT ( 'NONE', #133 ) ;
#212 = EDGE_CURVE ( 'NONE', #84, #211, #141, .T. ) ;
#213 = VECTOR ( 'NONE', #70, 1000.000000000000000 ) ;
#214 = AXIS2_PLACEMENT_3D ( 'NONE', #106, #103, #102 ) ;
#215 = EDGE_LOOP ( 'NONE', ( #244, #37 ) ) ;
#216 = CARTESIAN_POINT ( 'NONE',  ( 11.99999999999999800, 10.00000000000000000, 6.000000000000000000 ) ) ;
#217 = CARTESIAN_POINT ( 'NONE',  ( 9.999999999999998200, 10.00000000000000000, 6.000000000000000000 ) ) ;
#218 = EDGE_LOOP ( 'NONE', ( #243, #276, #228, #13 ) ) ;
#219 = LINE ( 'NONE', #24, #213 ) ;
#220 = EDGE_CURVE ( 'NONE', #8, #98, #234, .T. ) ;
#221 = COLOUR_RGB ( '',1.000000000000000000, 1.000000000000000000, 1.000000000000000000 ) ;
#222 = EDGE_LOOP ( 'NONE', ( #256, #271, #110, #82 ) ) ;
#223 = DIRECTION ( 'NONE',  ( -1.000000000000000000, 0.0000000000000000000, -0.0000000000000000000 ) ) ;
#224 = ORIENTED_EDGE ( 'NONE', *, *, #140, .F. ) ;
#225 = VECTOR ( 'NONE', #15, 1000.000000000000000 ) ;
#226 = EDGE_CURVE ( 'NONE', #211, #254, #134, .T. ) ;
#227 = DIRECTION ( 'NONE',  ( 0.0000000000000000000, 0.0000000000000000000, -1.000000000000000000 ) ) ;
#228 = ORIENTED_EDGE ( 'NONE', *, *, #167, .F. ) ;
#229 = VECTOR ( 'NONE', #171, 1000.000000000000000 ) ;
#230 = UNCERTAINTY_MEASURE_WITH_UNIT (LENGTH_MEASURE( 1.000000000000000100E-005 ), #77, 'distance_accuracy_value', 'NONE');
#231 = CARTESIAN_POINT ( 'NONE',  ( 0.0000000000000000000, 20.00000000000000000, 6.000000000000000000 ) ) ;
#232 = VERTEX_POINT ( 'NONE', #81 ) ;
#233 = LINE ( 'NONE', #162, #229 ) ;
#234 = CIRCLE ( 'NONE', #91, 2.000000000000000000 ) ;
#235 = DIRECTION ( 'NONE',  ( -1.000000000000000000, -0.0000000000000000000, -0.0000000000000000000 ) ) ;
#236 = ORIENTED_EDGE ( 'NONE', *, *, #49, .T. ) ;
#237 = UNCERTAINTY_MEASURE_WITH_UNIT (LENGTH_MEASURE( 1.000000000000000100E-005 ), #64, 'distance_accuracy_value', 'NONE');
#238 = EDGE_CURVE ( 'NONE', #211, #185, #248, .T. ) ;
#239 = FACE_OUTER_BOUND ( 'NONE', #114, .T. ) ;
#240 = COLOUR_RGB ( '',1.000000000000000000, 1.000000000000000000, 1.000000000000000000 ) ;
#241 = ADVANCED_FACE ( 'NONE', ( #119 ), #113, .F. ) ;
#242 = AXIS2_PLACEMENT_3D ( 'NONE', #65, #28, #182 ) ;
#243 = ORIENTED_EDGE ( 'NONE', *, *, #183, .T. ) ;
#244 = ORIENTED_EDGE ( 'NONE', *, *, #167, .T. ) ;
#245 = FACE_OUTER_BOUND ( 'NONE', #172, .T. ) ;
#246 = DIRECTION ( 'NONE',  ( -0.0000000000000000000, -1.000000000000000000, -0.0000000000000000000 ) ) ;
#247 = ORIENTED_EDGE ( 'NONE', *, *, #220, .F. ) ;
#248 = LINE ( 'NONE', #122, #206 ) ;
#249 = AXIS2_PLACEMENT_3D ( 'NONE', #86, #25, #23 ) ;
#250 = AXIS2_PLACEMENT_3D ( 'NONE', #270, #265, #260 ) ;
#251 = ORIENTED_EDGE ( 'NONE', *, *, #226, .T. ) ;
#252 = DIRECTION ( 'NONE',  ( -1.000000000000000000, -0.0000000000000000000, -0.0000000000000000000 ) ) ;
#253 = CYLINDRICAL_SURFACE ( 'NONE', #42, 2.000000000000000000 ) ;
#254 = VERTEX_POINT ( 'NONE', #101 ) ;
#255 = ADVANCED_FACE ( 'NONE', ( #245, #75 ), #111, .T. ) ;
#256 = ORIENTED_EDGE ( 'NONE', *, *, #140, .T. ) ;
#257 = SURFACE_STYLE_FILL_AREA ( #45 ) ;
#258 = ORIENTED_EDGE ( 'NONE', *, *, #144, .F. ) ;
#259 = CARTESIAN_POINT ( 'NONE',  ( 0.0000000000000000000, 20.00000000000000000, 0.0000000000000000000 ) ) ;
#260 = DIRECTION ( 'NONE',  ( 1.000000000000000000, 0.0000000000000000000, 0.0000000000000000000 ) ) ;
#261 = CARTESIAN_POINT ( 'NONE',  ( 0.0000000000000000000, 0.0000000000000000000, 6.000000000000000000 ) ) ;
#262 = ADVANCED_FACE ( 'NONE', ( #184 ), #269, .F. ) ;
#263 = ORIENTED_EDGE ( 'NONE', *, *, #193, .T. ) ;
#264 = EDGE_LOOP ( 'NONE', ( #54, #251, #68, #47 ) ) ;
#265 = DIRECTION ( 'NONE',  ( 0.0000000000000000000, 0.0000000000000000000, 1.000000000000000000 ) ) ;
#266 = MANIFOLD_SOLID_BREP ( 'Basis-Linear austragen', #67 ) ;
#267 = ORIENTED_EDGE ( 'NONE', *, *, #100, .T. ) ;
#268 = ORIENTED_EDGE ( 'NONE', *, *, #226, .F. ) ;
#269 = CYLINDRICAL_SURFACE ( 'NONE', #273, 2.000000000000000000 ) ;
#270 = CARTESIAN_POINT ( 'NONE',  ( 9.999999999999998200, 10.00000000000000000, 6.000000000000000000 ) ) ;
#271 = ORIENTED_EDGE ( 'NONE', *, *, #238, .F. ) ;
#272 = PRODUCT_DEFINITION ( 'UNKNOWN', '', #9, #181 ) ;
#273 = AXIS2_PLACEMENT_3D ( 'NONE', #105, #87, #89 ) ;
#274 = CARTESIAN_POINT ( 'NONE',  ( 0.0000000000000000000, 0.0000000000000000000, 0.0000000000000000000 ) ) ;
#275 = ORIENTED_EDGE ( 'NONE', *, *, #6, .F. ) ;
#276 = ORIENTED_EDGE ( 'NONE', *, *, #195, .T. ) ;
ENDSEC;
END-ISO-10303-21;
