ISO-10303-21;
HEADER;
FILE_DESCRIPTION (( 'STEP AP214' ),
    '1' );
FILE_NAME ('096p0202004m4.STEP',
    '2014-08-18T12:46:17',
    ( '' ),
    ( '' ),
    'SwSTEP 2.0',
    'SolidWorks 2014',
    '' );
FILE_SCHEMA (( 'AUTOMOTIVE_DESIGN' ));
ENDSEC;

DATA;
#1 = PLANE ( 'NONE',  #176 ) ;
#2 = CARTESIAN_POINT ( 'NONE',  ( 8.350000000000003200, 10.00000000000000000, 0.0000000000000000000 ) ) ;
#3 = EDGE_LOOP ( 'NONE', ( #229, #289 ) ) ;
#4 = AXIS2_PLACEMENT_3D ( 'NONE', #182, #304, #264 ) ;
#5 = CARTESIAN_POINT ( 'NONE',  ( 0.0000000000000000000, 0.0000000000000000000, 4.000000000000000000 ) ) ;
#6 = EDGE_CURVE ( 'NONE', #166, #230, #57, .T. ) ;
#7 = DIRECTION ( 'NONE',  ( 1.000000000000000000, 0.0000000000000000000, 0.0000000000000000000 ) ) ;
#8 = ORIENTED_EDGE ( 'NONE', *, *, #23, .F. ) ;
#9 = DIRECTION ( 'NONE',  ( -0.0000000000000000000, -0.0000000000000000000, 1.000000000000000000 ) ) ;
#10 = AXIS2_PLACEMENT_3D ( 'NONE', #53, #27, #156 ) ;
#11 = PLANE ( 'NONE',  #113 ) ;
#12 = APPLICATION_PROTOCOL_DEFINITION ( 'draft international standard', 'automotive_design', 1998, #228 ) ;
#13 = VERTEX_POINT ( 'NONE', #194 ) ;
#14 = DIRECTION ( 'NONE',  ( -0.0000000000000000000, -1.000000000000000000, -0.0000000000000000000 ) ) ;
#15 = CARTESIAN_POINT ( 'NONE',  ( 8.350000000000003200, 10.00000000000000000, 4.000000000000000000 ) ) ;
#16 = DIRECTION ( 'NONE',  ( 0.0000000000000000000, 0.0000000000000000000, -1.000000000000000000 ) ) ;
#17 = VERTEX_POINT ( 'NONE', #276 ) ;
#18 = CARTESIAN_POINT ( 'NONE',  ( 0.0000000000000000000, 0.0000000000000000000, 0.0000000000000000000 ) ) ;
#19 = CARTESIAN_POINT ( 'NONE',  ( 8.350000000000001400, 10.00000000000000000, 4.000000000000000000 ) ) ;
#20 = ORIENTED_EDGE ( 'NONE', *, *, #6, .F. ) ;
#21 = FACE_OUTER_BOUND ( 'NONE', #265, .T. ) ;
#22 = ADVANCED_FACE ( 'NONE', ( #48 ), #1, .F. ) ;
#23 = EDGE_CURVE ( 'NONE', #230, #301, #184, .T. ) ;
#24 = VECTOR ( 'NONE', #14, 1000.000000000000000 ) ;
#25 = ORIENTED_EDGE ( 'NONE', *, *, #219, .F. ) ;
#26 = CARTESIAN_POINT ( 'NONE',  ( 20.00000000000000000, 2.449212707644754500E-015, 4.000000000000000000 ) ) ;
#27 = DIRECTION ( 'NONE',  ( -1.224606353822377300E-016, 1.000000000000000000, 0.0000000000000000000 ) ) ;
#28 = EDGE_CURVE ( 'NONE', #30, #93, #277, .T. ) ;
#29 =( NAMED_UNIT ( * ) SI_UNIT ( $, .STERADIAN. ) SOLID_ANGLE_UNIT ( ) );
#30 = VERTEX_POINT ( 'NONE', #2 ) ;
#31 = PLANE ( 'NONE',  #74 ) ;
#32 = DIRECTION ( 'NONE',  ( -0.0000000000000000000, -0.0000000000000000000, 1.000000000000000000 ) ) ;
#33 = SURFACE_SIDE_STYLE ('',( #227 ) ) ;
#34 = FACE_OUTER_BOUND ( 'NONE', #137, .T. ) ;
#35 = PRODUCT ( '096p0202004m4', '096p0202004m4', '', ( #56 ) ) ;
#36 = UNCERTAINTY_MEASURE_WITH_UNIT (LENGTH_MEASURE( 1.000000000000000100E-005 ), #123, 'distance_accuracy_value', 'NONE');
#37 = CARTESIAN_POINT ( 'NONE',  ( 0.0000000000000000000, 0.0000000000000000000, 0.0000000000000000000 ) ) ;
#38 = ORIENTED_EDGE ( 'NONE', *, *, #249, .T. ) ;
#39 = ORIENTED_EDGE ( 'NONE', *, *, #280, .F. ) ;
#40 = EDGE_CURVE ( 'NONE', #17, #166, #260, .T. ) ;
#41 =( NAMED_UNIT ( * ) PLANE_ANGLE_UNIT ( ) SI_UNIT ( $, .RADIAN. ) );
#42 = CIRCLE ( 'NONE', #217, 1.649999999999997000 ) ;
#43 = EDGE_CURVE ( 'NONE', #93, #222, #135, .T. ) ;
#44 = ORIENTED_EDGE ( 'NONE', *, *, #78, .T. ) ;
#45 = ADVANCED_FACE ( 'NONE', ( #305, #246 ), #11, .T. ) ;
#46 = ORIENTED_EDGE ( 'NONE', *, *, #78, .F. ) ;
#47 = SURFACE_STYLE_USAGE ( .BOTH. , #102 ) ;
#48 = FACE_OUTER_BOUND ( 'NONE', #188, .T. ) ;
#49 = FILL_AREA_STYLE ('',( #73 ) ) ;
#50 = LINE ( 'NONE', #294, #101 ) ;
#51 = CIRCLE ( 'NONE', #256, 1.649999999999995200 ) ;
#52 = CARTESIAN_POINT ( 'NONE',  ( 0.0000000000000000000, 0.0000000000000000000, 0.0000000000000000000 ) ) ;
#53 = CARTESIAN_POINT ( 'NONE',  ( 0.0000000000000000000, 0.0000000000000000000, 4.000000000000000000 ) ) ;
#54 = CARTESIAN_POINT ( 'NONE',  ( 0.0000000000000000000, 20.00000000000000000, 4.000000000000000000 ) ) ;
#55 = EDGE_CURVE ( 'NONE', #306, #88, #197, .T. ) ;
#56 = PRODUCT_CONTEXT ( 'NONE', #228, 'mechanical' ) ;
#57 = LINE ( 'NONE', #54, #70 ) ;
#58 = AXIS2_PLACEMENT_3D ( 'NONE', #257, #77, #89 ) ;
#59 = PRESENTATION_LAYER_ASSIGNMENT (  '', '', ( #91 ) ) ;
#60 = CARTESIAN_POINT ( 'NONE',  ( 20.00000000000000000, 2.449212707644754500E-015, 0.0000000000000000000 ) ) ;
#61 = ORIENTED_EDGE ( 'NONE', *, *, #288, .T. ) ;
#62 = VECTOR ( 'NONE', #178, 1000.000000000000000 ) ;
#63 = CARTESIAN_POINT ( 'NONE',  ( 20.00000000000000000, 20.00000000000000000, 4.000000000000000000 ) ) ;
#64 = UNCERTAINTY_MEASURE_WITH_UNIT (LENGTH_MEASURE( 1.000000000000000100E-005 ), #174, 'distance_accuracy_value', 'NONE');
#65 = FACE_OUTER_BOUND ( 'NONE', #243, .T. ) ;
#66 = ORIENTED_EDGE ( 'NONE', *, *, #40, .T. ) ;
#67 = DIRECTION ( 'NONE',  ( -0.0000000000000000000, -0.0000000000000000000, 1.000000000000000000 ) ) ;
#68 = PRODUCT_DEFINITION_CONTEXT ( 'detailed design', #253, 'design' ) ;
#69 = DIRECTION ( 'NONE',  ( 1.000000000000000000, 1.224606353822377300E-016, 0.0000000000000000000 ) ) ;
#70 = VECTOR ( 'NONE', #92, 1000.000000000000000 ) ;
#71 = ORIENTED_EDGE ( 'NONE', *, *, #280, .T. ) ;
#72 = FILL_AREA_STYLE ('',( #138 ) ) ;
#73 = FILL_AREA_STYLE_COLOUR ( '', #79 ) ;
#74 = AXIS2_PLACEMENT_3D ( 'NONE', #26, #216, #250 ) ;
#75 = ORIENTED_EDGE ( 'NONE', *, *, #28, .T. ) ;
#76 = COLOUR_RGB ( '',0.8941176470588234600, 0.9137254901960784000, 0.9294117647058823800 ) ;
#77 = DIRECTION ( 'NONE',  ( 0.0000000000000000000, 0.0000000000000000000, -1.000000000000000000 ) ) ;
#78 = EDGE_CURVE ( 'NONE', #118, #13, #296, .T. ) ;
#79 = COLOUR_RGB ( '',0.8941176470588234600, 0.9137254901960784000, 0.9294117647058823800 ) ;
#80 = CARTESIAN_POINT ( 'NONE',  ( 9.999999999999998200, 10.00000000000000000, 4.000000000000000000 ) ) ;
#81 = EDGE_LOOP ( 'NONE', ( #8, #105, #124, #286 ) ) ;
#82 = PLANE ( 'NONE',  #58 ) ;
#83 = DIRECTION ( 'NONE',  ( 1.000000000000000000, 0.0000000000000000000, 0.0000000000000000000 ) ) ;
#84 = CARTESIAN_POINT ( 'NONE',  ( 0.0000000000000000000, 20.00000000000000000, 4.000000000000000000 ) ) ;
#85 = DIRECTION ( 'NONE',  ( -1.000000000000000000, -0.0000000000000000000, -0.0000000000000000000 ) ) ;
#86 = CARTESIAN_POINT ( 'NONE',  ( 20.00000000000000000, 2.449212707644754500E-015, 0.0000000000000000000 ) ) ;
#87 = VECTOR ( 'NONE', #213, 1000.000000000000000 ) ;
#88 = VERTEX_POINT ( 'NONE', #157 ) ;
#89 = DIRECTION ( 'NONE',  ( -1.000000000000000000, 0.0000000000000000000, -0.0000000000000000000 ) ) ;
#90 = UNCERTAINTY_MEASURE_WITH_UNIT (LENGTH_MEASURE( 1.000000000000000100E-005 ), #161, 'distance_accuracy_value', 'NONE');
#91 = STYLED_ITEM ( 'NONE', ( #148 ), #303 ) ;
#92 = DIRECTION ( 'NONE',  ( -0.0000000000000000000, -0.0000000000000000000, -1.000000000000000000 ) ) ;
#93 = VERTEX_POINT ( 'NONE', #19 ) ;
#94 = DIRECTION ( 'NONE',  ( -1.000000000000000000, -0.0000000000000000000, -0.0000000000000000000 ) ) ;
#95 = ADVANCED_FACE ( 'NONE', ( #235 ), #31, .F. ) ;
#96 = ORIENTED_EDGE ( 'NONE', *, *, #6, .T. ) ;
#97 = PLANE ( 'NONE',  #287 ) ;
#98 = CARTESIAN_POINT ( 'NONE',  ( 0.0000000000000000000, 20.00000000000000000, 4.000000000000000000 ) ) ;
#99 = FILL_AREA_STYLE ('',( #232 ) ) ;
#100 = VECTOR ( 'NONE', #9, 1000.000000000000000 ) ;
#101 = VECTOR ( 'NONE', #223, 1000.000000000000000 ) ;
#102 = SURFACE_SIDE_STYLE ('',( #202 ) ) ;
#103 = COLOUR_RGB ( '',0.8941176470588234600, 0.9137254901960784000, 0.9294117647058823800 ) ;
#104 =( NAMED_UNIT ( * ) PLANE_ANGLE_UNIT ( ) SI_UNIT ( $, .RADIAN. ) );
#105 = ORIENTED_EDGE ( 'NONE', *, *, #300, .F. ) ;
#106 = DIRECTION ( 'NONE',  ( -0.0000000000000000000, -0.0000000000000000000, 1.000000000000000000 ) ) ;
#107 = DIRECTION ( 'NONE',  ( 0.0000000000000000000, -1.000000000000000000, 0.0000000000000000000 ) ) ;
#108 = DIRECTION ( 'NONE',  ( 0.0000000000000000000, -0.0000000000000000000, -1.000000000000000000 ) ) ;
#109 = CARTESIAN_POINT ( 'NONE',  ( 0.0000000000000000000, 20.00000000000000000, 0.0000000000000000000 ) ) ;
#110 = VECTOR ( 'NONE', #181, 1000.000000000000000 ) ;
#111 = VECTOR ( 'NONE', #204, 1000.000000000000000 ) ;
#112 = FILL_AREA_STYLE_COLOUR ( '', #76 ) ;
#113 = AXIS2_PLACEMENT_3D ( 'NONE', #201, #239, #200 ) ;
#114 = MECHANICAL_DESIGN_GEOMETRIC_PRESENTATION_REPRESENTATION (  '', ( #91 ), #131 ) ;
#115 = CARTESIAN_POINT ( 'NONE',  ( 9.999999999999998200, 10.00000000000000000, 4.000000000000000000 ) ) ;
#116 = FILL_AREA_STYLE ('',( #112 ) ) ;
#117 = SURFACE_SIDE_STYLE ('',( #208 ) ) ;
#118 = VERTEX_POINT ( 'NONE', #215 ) ;
#119 = DIRECTION ( 'NONE',  ( -1.000000000000000000, 0.0000000000000000000, 0.0000000000000000000 ) ) ;
#120 = SURFACE_STYLE_USAGE ( .BOTH. , #117 ) ;
#121 = SURFACE_SIDE_STYLE ('',( #169 ) ) ;
#122 = VECTOR ( 'NONE', #94, 1000.000000000000000 ) ;
#123 =( LENGTH_UNIT ( ) NAMED_UNIT ( * ) SI_UNIT ( .MILLI., .METRE. ) );
#124 = ORIENTED_EDGE ( 'NONE', *, *, #55, .F. ) ;
#125 =( NAMED_UNIT ( * ) PLANE_ANGLE_UNIT ( ) SI_UNIT ( $, .RADIAN. ) );
#126 = LINE ( 'NONE', #63, #62 ) ;
#127 = ADVANCED_FACE ( 'NONE', ( #240, #65 ), #82, .F. ) ;
#128 = SHAPE_DEFINITION_REPRESENTATION ( #198, #150 ) ;
#129 = ORIENTED_EDGE ( 'NONE', *, *, #43, .F. ) ;
#130 =( NAMED_UNIT ( * ) SI_UNIT ( $, .STERADIAN. ) SOLID_ANGLE_UNIT ( ) );
#131 =( GEOMETRIC_REPRESENTATION_CONTEXT ( 3 ) GLOBAL_UNCERTAINTY_ASSIGNED_CONTEXT ( ( #211 ) ) GLOBAL_UNIT_ASSIGNED_CONTEXT ( ( #233, #231, #299 ) ) REPRESENTATION_CONTEXT ( 'NONE', 'WORKASPACE' ) );
#132 = ORIENTED_EDGE ( 'NONE', *, *, #266, .T. ) ;
#133 = VECTOR ( 'NONE', #85, 1000.000000000000000 ) ;
#134 =( LENGTH_UNIT ( ) NAMED_UNIT ( * ) SI_UNIT ( .MILLI., .METRE. ) );
#135 = CIRCLE ( 'NONE', #199, 1.649999999999997000 ) ;
#136 = DIRECTION ( 'NONE',  ( 1.000000000000000000, 0.0000000000000000000, 0.0000000000000000000 ) ) ;
#137 = EDGE_LOOP ( 'NONE', ( #38, #293, #46, #282 ) ) ;
#138 = FILL_AREA_STYLE_COLOUR ( '', #103 ) ;
#139 = DIRECTION ( 'NONE',  ( 0.0000000000000000000, 0.0000000000000000000, -1.000000000000000000 ) ) ;
#140 = ORIENTED_EDGE ( 'NONE', *, *, #40, .F. ) ;
#141 = DIRECTION ( 'NONE',  ( 1.000000000000000000, 0.0000000000000000000, 0.0000000000000000000 ) ) ;
#142 = SURFACE_STYLE_USAGE ( .BOTH. , #33 ) ;
#143 = ORIENTED_EDGE ( 'NONE', *, *, #300, .T. ) ;
#144 = SURFACE_STYLE_USAGE ( .BOTH. , #121 ) ;
#145 = CARTESIAN_POINT ( 'NONE',  ( 0.0000000000000000000, 0.0000000000000000000, 4.000000000000000000 ) ) ;
#146 = EDGE_LOOP ( 'NONE', ( #258, #129 ) ) ;
#147 = PRESENTATION_STYLE_ASSIGNMENT (( #120 ) ) ;
#148 = PRESENTATION_STYLE_ASSIGNMENT (( #47 ) ) ;
#149 = ADVANCED_FACE ( 'NONE', ( #34 ), #162, .F. ) ;
#150 = ADVANCED_BREP_SHAPE_REPRESENTATION ( '096p0202004m4', ( #270, #4 ), #210 ) ;
#151 = ORIENTED_EDGE ( 'NONE', *, *, #196, .T. ) ;
#152 = CARTESIAN_POINT ( 'NONE',  ( 11.64999999999999300, 10.00000000000000000, 4.000000000000000000 ) ) ;
#153 = EDGE_CURVE ( 'NONE', #284, #222, #254, .T. ) ;
#154 = CARTESIAN_POINT ( 'NONE',  ( 20.00000000000000000, 2.449212707644754500E-015, 4.000000000000000000 ) ) ;
#155 = PRESENTATION_STYLE_ASSIGNMENT (( #142 ) ) ;
#156 = DIRECTION ( 'NONE',  ( -1.000000000000000000, -1.224606353822377300E-016, 0.0000000000000000000 ) ) ;
#157 = CARTESIAN_POINT ( 'NONE',  ( 20.00000000000000000, 20.00000000000000000, 0.0000000000000000000 ) ) ;
#158 = PRESENTATION_STYLE_ASSIGNMENT (( #144 ) ) ;
#159 = MECHANICAL_DESIGN_GEOMETRIC_PRESENTATION_REPRESENTATION (  '', ( #248 ), #192 ) ;
#160 = AXIS2_PLACEMENT_3D ( 'NONE', #237, #175, #83 ) ;
#161 =( LENGTH_UNIT ( ) NAMED_UNIT ( * ) SI_UNIT ( .MILLI., .METRE. ) );
#162 = PLANE ( 'NONE',  #10 ) ;
#163 = CARTESIAN_POINT ( 'NONE',  ( 11.64999999999999500, 10.00000000000000000, 4.000000000000000000 ) ) ;
#164 = CARTESIAN_POINT ( 'NONE',  ( 9.999999999999998200, 10.00000000000000000, 4.000000000000000000 ) ) ;
#165 = EDGE_CURVE ( 'NONE', #118, #301, #268, .T. ) ;
#166 = VERTEX_POINT ( 'NONE', #84 ) ;
#167 = FACE_OUTER_BOUND ( 'NONE', #291, .T. ) ;
#168 = CARTESIAN_POINT ( 'NONE',  ( 11.64999999999999300, 10.00000000000000000, 0.0000000000000000000 ) ) ;
#169 = SURFACE_STYLE_FILL_AREA ( #72 ) ;
#170 = ORIENTED_EDGE ( 'NONE', *, *, #196, .F. ) ;
#171 =( NAMED_UNIT ( * ) SI_UNIT ( $, .STERADIAN. ) SOLID_ANGLE_UNIT ( ) );
#172 = ORIENTED_EDGE ( 'NONE', *, *, #285, .T. ) ;
#173 =( NAMED_UNIT ( * ) PLANE_ANGLE_UNIT ( ) SI_UNIT ( $, .RADIAN. ) );
#174 =( LENGTH_UNIT ( ) NAMED_UNIT ( * ) SI_UNIT ( .MILLI., .METRE. ) );
#175 = DIRECTION ( 'NONE',  ( -0.0000000000000000000, -0.0000000000000000000, 1.000000000000000000 ) ) ;
#176 = AXIS2_PLACEMENT_3D ( 'NONE', #5, #7, #16 ) ;
#177 = PRESENTATION_LAYER_ASSIGNMENT (  '', '', ( #193 ) ) ;
#178 = DIRECTION ( 'NONE',  ( -0.0000000000000000000, -0.0000000000000000000, -1.000000000000000000 ) ) ;
#179 = APPLICATION_PROTOCOL_DEFINITION ( 'draft international standard', 'automotive_design', 1998, #253 ) ;
#180 = ORIENTED_EDGE ( 'NONE', *, *, #55, .T. ) ;
#181 = DIRECTION ( 'NONE',  ( 1.000000000000000000, 1.224606353822377300E-016, 0.0000000000000000000 ) ) ;
#182 = CARTESIAN_POINT ( 'NONE',  ( 0.0000000000000000000, 0.0000000000000000000, 0.0000000000000000000 ) ) ;
#183 = DIRECTION ( 'NONE',  ( -0.0000000000000000000, -0.0000000000000000000, -1.000000000000000000 ) ) ;
#184 = LINE ( 'NONE', #18, #24 ) ;
#185 = CYLINDRICAL_SURFACE ( 'NONE', #186, 1.649999999999995200 ) ;
#186 = AXIS2_PLACEMENT_3D ( 'NONE', #115, #106, #136 ) ;
#187 = DIRECTION ( 'NONE',  ( 0.0000000000000000000, 0.0000000000000000000, -1.000000000000000000 ) ) ;
#188 = EDGE_LOOP ( 'NONE', ( #190, #271, #25, #96 ) ) ;
#189 = PRODUCT_RELATED_PRODUCT_CATEGORY ( 'part', '', ( #35 ) ) ;
#190 = ORIENTED_EDGE ( 'NONE', *, *, #23, .T. ) ;
#191 = CARTESIAN_POINT ( 'NONE',  ( 9.999999999999998200, 10.00000000000000000, 0.0000000000000000000 ) ) ;
#192 =( GEOMETRIC_REPRESENTATION_CONTEXT ( 3 ) GLOBAL_UNCERTAINTY_ASSIGNED_CONTEXT ( ( #64 ) ) GLOBAL_UNIT_ASSIGNED_CONTEXT ( ( #174, #173, #171 ) ) REPRESENTATION_CONTEXT ( 'NONE', 'WORKASPACE' ) );
#193 = STYLED_ITEM ( 'NONE', ( #155 ), #150 ) ;
#194 = CARTESIAN_POINT ( 'NONE',  ( 20.00000000000000000, 2.449212707644754500E-015, 4.000000000000000000 ) ) ;
#195 = ORIENTED_EDGE ( 'NONE', *, *, #219, .T. ) ;
#196 = EDGE_CURVE ( 'NONE', #13, #17, #297, .T. ) ;
#197 = LINE ( 'NONE', #60, #87 ) ;
#198 = PRODUCT_DEFINITION_SHAPE ( 'NONE', 'NONE',  #274 ) ;
#199 = AXIS2_PLACEMENT_3D ( 'NONE', #80, #225, #245 ) ;
#200 = DIRECTION ( 'NONE',  ( -1.000000000000000000, 0.0000000000000000000, -0.0000000000000000000 ) ) ;
#201 = CARTESIAN_POINT ( 'NONE',  ( 0.0000000000000000000, 20.00000000000000000, 0.0000000000000000000 ) ) ;
#202 = SURFACE_STYLE_FILL_AREA ( #49 ) ;
#203 = PRODUCT_DEFINITION_FORMATION_WITH_SPECIFIED_SOURCE ( 'ANY', '', #35, .NOT_KNOWN. ) ;
#204 = DIRECTION ( 'NONE',  ( 0.0000000000000000000, 1.000000000000000000, 0.0000000000000000000 ) ) ;
#205 = CARTESIAN_POINT ( 'NONE',  ( 0.0000000000000000000, 20.00000000000000000, 4.000000000000000000 ) ) ;
#206 = ORIENTED_EDGE ( 'NONE', *, *, #153, .T. ) ;
#207 = EDGE_LOOP ( 'NONE', ( #180, #39, #170, #251 ) ) ;
#208 = SURFACE_STYLE_FILL_AREA ( #116 ) ;
#209 = AXIS2_PLACEMENT_3D ( 'NONE', #191, #187, #119 ) ;
#210 =( GEOMETRIC_REPRESENTATION_CONTEXT ( 3 ) GLOBAL_UNCERTAINTY_ASSIGNED_CONTEXT ( ( #90 ) ) GLOBAL_UNIT_ASSIGNED_CONTEXT ( ( #161, #41, #29 ) ) REPRESENTATION_CONTEXT ( 'NONE', 'WORKASPACE' ) );
#211 = UNCERTAINTY_MEASURE_WITH_UNIT (LENGTH_MEASURE( 1.000000000000000100E-005 ), #233, 'distance_accuracy_value', 'NONE');
#212 = LINE ( 'NONE', #292, #133 ) ;
#213 = DIRECTION ( 'NONE',  ( 0.0000000000000000000, 1.000000000000000000, 0.0000000000000000000 ) ) ;
#214 = VECTOR ( 'NONE', #32, 1000.000000000000000 ) ;
#215 = CARTESIAN_POINT ( 'NONE',  ( 0.0000000000000000000, 0.0000000000000000000, 4.000000000000000000 ) ) ;
#216 = DIRECTION ( 'NONE',  ( -1.000000000000000000, 0.0000000000000000000, 0.0000000000000000000 ) ) ;
#217 = AXIS2_PLACEMENT_3D ( 'NONE', #164, #67, #141 ) ;
#218 = CARTESIAN_POINT ( 'NONE',  ( 0.0000000000000000000, 0.0000000000000000000, 4.000000000000000000 ) ) ;
#219 = EDGE_CURVE ( 'NONE', #166, #118, #50, .T. ) ;
#220 = UNCERTAINTY_MEASURE_WITH_UNIT (LENGTH_MEASURE( 1.000000000000000100E-005 ), #134, 'distance_accuracy_value', 'NONE');
#221 = ADVANCED_FACE ( 'NONE', ( #167 ), #97, .F. ) ;
#222 = VERTEX_POINT ( 'NONE', #163 ) ;
#223 = DIRECTION ( 'NONE',  ( -0.0000000000000000000, -1.000000000000000000, -0.0000000000000000000 ) ) ;
#224 = VECTOR ( 'NONE', #69, 1000.000000000000000 ) ;
#225 = DIRECTION ( 'NONE',  ( -0.0000000000000000000, -0.0000000000000000000, 1.000000000000000000 ) ) ;
#226 = MECHANICAL_DESIGN_GEOMETRIC_PRESENTATION_REPRESENTATION (  '', ( #193 ), #242 ) ;
#227 = SURFACE_STYLE_FILL_AREA ( #99 ) ;
#228 = APPLICATION_CONTEXT ( 'automotive_design' ) ;
#229 = ORIENTED_EDGE ( 'NONE', *, *, #285, .F. ) ;
#230 = VERTEX_POINT ( 'NONE', #109 ) ;
#231 =( NAMED_UNIT ( * ) PLANE_ANGLE_UNIT ( ) SI_UNIT ( $, .RADIAN. ) );
#232 = FILL_AREA_STYLE_COLOUR ( '', #281 ) ;
#233 =( LENGTH_UNIT ( ) NAMED_UNIT ( * ) SI_UNIT ( .MILLI., .METRE. ) );
#234 = MECHANICAL_DESIGN_GEOMETRIC_PRESENTATION_REPRESENTATION (  '', ( #298 ), #262 ) ;
#235 = FACE_OUTER_BOUND ( 'NONE', #207, .T. ) ;
#236 = ORIENTED_EDGE ( 'NONE', *, *, #153, .F. ) ;
#237 = CARTESIAN_POINT ( 'NONE',  ( 9.999999999999998200, 10.00000000000000000, 4.000000000000000000 ) ) ;
#238 = ORIENTED_EDGE ( 'NONE', *, *, #28, .F. ) ;
#239 = DIRECTION ( 'NONE',  ( 0.0000000000000000000, 0.0000000000000000000, -1.000000000000000000 ) ) ;
#240 = FACE_BOUND ( 'NONE', #146, .T. ) ;
#241 = CYLINDRICAL_SURFACE ( 'NONE', #160, 1.649999999999995200 ) ;
#242 =( GEOMETRIC_REPRESENTATION_CONTEXT ( 3 ) GLOBAL_UNCERTAINTY_ASSIGNED_CONTEXT ( ( #220 ) ) GLOBAL_UNIT_ASSIGNED_CONTEXT ( ( #134, #104, #283 ) ) REPRESENTATION_CONTEXT ( 'NONE', 'WORKASPACE' ) );
#243 = EDGE_LOOP ( 'NONE', ( #195, #44, #151, #66 ) ) ;
#244 = ADVANCED_FACE ( 'NONE', ( #21 ), #185, .F. ) ;
#245 = DIRECTION ( 'NONE',  ( 1.000000000000000000, 0.0000000000000000000, 0.0000000000000000000 ) ) ;
#246 = FACE_OUTER_BOUND ( 'NONE', #81, .T. ) ;
#247 = LINE ( 'NONE', #52, #224 ) ;
#248 = STYLED_ITEM ( 'NONE', ( #158 ), #270 ) ;
#249 = EDGE_CURVE ( 'NONE', #301, #306, #247, .T. ) ;
#250 = DIRECTION ( 'NONE',  ( 0.0000000000000000000, 0.0000000000000000000, 1.000000000000000000 ) ) ;
#251 = ORIENTED_EDGE ( 'NONE', *, *, #295, .T. ) ;
#252 = LINE ( 'NONE', #275, #267 ) ;
#253 = APPLICATION_CONTEXT ( 'automotive_design' ) ;
#254 = LINE ( 'NONE', #152, #214 ) ;
#255 = DIRECTION ( 'NONE',  ( -1.000000000000000000, 0.0000000000000000000, 0.0000000000000000000 ) ) ;
#256 = AXIS2_PLACEMENT_3D ( 'NONE', #290, #139, #255 ) ;
#257 = CARTESIAN_POINT ( 'NONE',  ( 0.0000000000000000000, 20.00000000000000000, 4.000000000000000000 ) ) ;
#258 = ORIENTED_EDGE ( 'NONE', *, *, #266, .F. ) ;
#259 = FACE_OUTER_BOUND ( 'NONE', #269, .T. ) ;
#260 = LINE ( 'NONE', #205, #122 ) ;
#261 = CLOSED_SHELL ( 'NONE', ( #244, #127, #45, #22, #149, #95, #221, #303 ) ) ;
#262 =( GEOMETRIC_REPRESENTATION_CONTEXT ( 3 ) GLOBAL_UNCERTAINTY_ASSIGNED_CONTEXT ( ( #36 ) ) GLOBAL_UNIT_ASSIGNED_CONTEXT ( ( #123, #125, #130 ) ) REPRESENTATION_CONTEXT ( 'NONE', 'WORKASPACE' ) );
#263 = DIRECTION ( 'NONE',  ( -0.0000000000000000000, -0.0000000000000000000, -1.000000000000000000 ) ) ;
#264 = DIRECTION ( 'NONE',  ( 1.000000000000000000, 0.0000000000000000000, 0.0000000000000000000 ) ) ;
#265 = EDGE_LOOP ( 'NONE', ( #172, #75, #278, #236 ) ) ;
#266 = EDGE_CURVE ( 'NONE', #222, #93, #42, .T. ) ;
#267 = VECTOR ( 'NONE', #183, 1000.000000000000000 ) ;
#268 = LINE ( 'NONE', #145, #272 ) ;
#269 = EDGE_LOOP ( 'NONE', ( #238, #61, #206, #132 ) ) ;
#270 = MANIFOLD_SOLID_BREP ( 'M4 Tapped Hole1', #261 ) ;
#271 = ORIENTED_EDGE ( 'NONE', *, *, #165, .F. ) ;
#272 = VECTOR ( 'NONE', #263, 1000.000000000000000 ) ;
#273 = PRESENTATION_LAYER_ASSIGNMENT (  '', '', ( #248 ) ) ;
#274 = PRODUCT_DEFINITION ( 'UNKNOWN', '', #203, #68 ) ;
#275 = CARTESIAN_POINT ( 'NONE',  ( 20.00000000000000000, 2.449212707644754500E-015, 4.000000000000000000 ) ) ;
#276 = CARTESIAN_POINT ( 'NONE',  ( 20.00000000000000000, 20.00000000000000000, 4.000000000000000000 ) ) ;
#277 = LINE ( 'NONE', #15, #100 ) ;
#278 = ORIENTED_EDGE ( 'NONE', *, *, #43, .T. ) ;
#279 = PRESENTATION_LAYER_ASSIGNMENT (  '', '', ( #298 ) ) ;
#280 = EDGE_CURVE ( 'NONE', #17, #88, #126, .T. ) ;
#281 = COLOUR_RGB ( '',0.8941176470588234600, 0.9137254901960784000, 0.9294117647058823800 ) ;
#282 = ORIENTED_EDGE ( 'NONE', *, *, #165, .T. ) ;
#283 =( NAMED_UNIT ( * ) SI_UNIT ( $, .STERADIAN. ) SOLID_ANGLE_UNIT ( ) );
#284 = VERTEX_POINT ( 'NONE', #168 ) ;
#285 = EDGE_CURVE ( 'NONE', #284, #30, #51, .T. ) ;
#286 = ORIENTED_EDGE ( 'NONE', *, *, #249, .F. ) ;
#287 = AXIS2_PLACEMENT_3D ( 'NONE', #98, #107, #108 ) ;
#288 = EDGE_CURVE ( 'NONE', #30, #284, #302, .T. ) ;
#289 = ORIENTED_EDGE ( 'NONE', *, *, #288, .F. ) ;
#290 = CARTESIAN_POINT ( 'NONE',  ( 9.999999999999998200, 10.00000000000000000, 0.0000000000000000000 ) ) ;
#291 = EDGE_LOOP ( 'NONE', ( #143, #20, #140, #71 ) ) ;
#292 = CARTESIAN_POINT ( 'NONE',  ( 0.0000000000000000000, 20.00000000000000000, 0.0000000000000000000 ) ) ;
#293 = ORIENTED_EDGE ( 'NONE', *, *, #295, .F. ) ;
#294 = CARTESIAN_POINT ( 'NONE',  ( 0.0000000000000000000, 0.0000000000000000000, 4.000000000000000000 ) ) ;
#295 = EDGE_CURVE ( 'NONE', #13, #306, #252, .T. ) ;
#296 = LINE ( 'NONE', #218, #110 ) ;
#297 = LINE ( 'NONE', #154, #111 ) ;
#298 = STYLED_ITEM ( 'NONE', ( #147 ), #244 ) ;
#299 =( NAMED_UNIT ( * ) SI_UNIT ( $, .STERADIAN. ) SOLID_ANGLE_UNIT ( ) );
#300 = EDGE_CURVE ( 'NONE', #88, #230, #212, .T. ) ;
#301 = VERTEX_POINT ( 'NONE', #37 ) ;
#302 = CIRCLE ( 'NONE', #209, 1.649999999999995200 ) ;
#303 = ADVANCED_FACE ( 'NONE', ( #259 ), #241, .F. ) ;
#304 = DIRECTION ( 'NONE',  ( 0.0000000000000000000, 0.0000000000000000000, 1.000000000000000000 ) ) ;
#305 = FACE_BOUND ( 'NONE', #3, .T. ) ;
#306 = VERTEX_POINT ( 'NONE', #86 ) ;
ENDSEC;
END-ISO-10303-21;
