ISO-10303-21;
HEADER;
FILE_DESCRIPTION (( 'STEP AP214' ),
    '1' );
FILE_NAME ('096p0201806m8.STEP',
    '2014-08-18T12:45:00',
    ( '' ),
    ( '' ),
    'SwSTEP 2.0',
    'SolidWorks 2014',
    '' );
FILE_SCHEMA (( 'AUTOMOTIVE_DESIGN' ));
ENDSEC;

DATA;
#1 = DIRECTION ( 'NONE',  ( 1.000000000000000000, 0.0000000000000000000, 0.0000000000000000000 ) ) ;
#2 = CARTESIAN_POINT ( 'NONE',  ( 8.999999999999998200, 10.00000000000000000, 0.0000000000000000000 ) ) ;
#3 = VERTEX_POINT ( 'NONE', #255 ) ;
#4 = CARTESIAN_POINT ( 'NONE',  ( 0.0000000000000000000, 20.00000000000000000, 6.000000000000000000 ) ) ;
#5 = EDGE_CURVE ( 'NONE', #275, #251, #136, .T. ) ;
#6 = DIRECTION ( 'NONE',  ( 0.0000000000000000000, 0.0000000000000000000, 1.000000000000000000 ) ) ;
#7 = VERTEX_POINT ( 'NONE', #4 ) ;
#8 = MECHANICAL_DESIGN_GEOMETRIC_PRESENTATION_REPRESENTATION (  '', ( #254 ), #22 ) ;
#9 = FACE_OUTER_BOUND ( 'NONE', #198, .T. ) ;
#10 = VERTEX_POINT ( 'NONE', #256 ) ;
#11 = EDGE_LOOP ( 'NONE', ( #240, #37 ) ) ;
#12 = LINE ( 'NONE', #92, #42 ) ;
#13 = VECTOR ( 'NONE', #218, 1000.000000000000000 ) ;
#14 = ADVANCED_FACE ( 'NONE', ( #243 ), #76, .F. ) ;
#15 = CARTESIAN_POINT ( 'NONE',  ( 8.999999999999998200, 10.00000000000000000, 0.0000000000000000000 ) ) ;
#16 = EDGE_CURVE ( 'NONE', #183, #150, #21, .T. ) ;
#17 = VERTEX_POINT ( 'NONE', #222 ) ;
#18 = VERTEX_POINT ( 'NONE', #204 ) ;
#19 = DIRECTION ( 'NONE',  ( -1.000000000000000000, 0.0000000000000000000, -0.0000000000000000000 ) ) ;
#21 = LINE ( 'NONE', #221, #184 ) ;
#20 = CARTESIAN_POINT ( 'NONE',  ( 8.999999999999998200, 10.00000000000000000, 6.000000000000000000 ) ) ;
#22 =( GEOMETRIC_REPRESENTATION_CONTEXT ( 3 ) GLOBAL_UNCERTAINTY_ASSIGNED_CONTEXT ( ( #142 ) ) GLOBAL_UNIT_ASSIGNED_CONTEXT ( ( #78, #69, #64 ) ) REPRESENTATION_CONTEXT ( 'NONE', 'WORKASPACE' ) );
#23 = VECTOR ( 'NONE', #60, 1000.000000000000000 ) ;
#24 = CARTESIAN_POINT ( 'NONE',  ( 18.00000000000000000, 20.00000000000000000, 0.0000000000000000000 ) ) ;
#25 = ORIENTED_EDGE ( 'NONE', *, *, #226, .T. ) ;
#26 = AXIS2_PLACEMENT_3D ( 'NONE', #273, #94, #93 ) ;
#27 = ORIENTED_EDGE ( 'NONE', *, *, #114, .T. ) ;
#28 = DIRECTION ( 'NONE',  ( 1.000000000000000000, 1.224606353822377300E-016, 0.0000000000000000000 ) ) ;
#29 = APPLICATION_PROTOCOL_DEFINITION ( 'draft international standard', 'automotive_design', 1998, #44 ) ;
#30 = EDGE_LOOP ( 'NONE', ( #152, #260, #75, #163 ) ) ;
#31 = DIRECTION ( 'NONE',  ( 0.0000000000000000000, 0.0000000000000000000, -1.000000000000000000 ) ) ;
#32 = DIRECTION ( 'NONE',  ( -1.000000000000000000, 0.0000000000000000000, 0.0000000000000000000 ) ) ;
#33 = VERTEX_POINT ( 'NONE', #234 ) ;
#34 = AXIS2_PLACEMENT_3D ( 'NONE', #2, #242, #237 ) ;
#35 = SURFACE_STYLE_FILL_AREA ( #108 ) ;
#36 = DIRECTION ( 'NONE',  ( -0.0000000000000000000, -0.0000000000000000000, -1.000000000000000000 ) ) ;
#37 = ORIENTED_EDGE ( 'NONE', *, *, #182, .F. ) ;
#38 = DIRECTION ( 'NONE',  ( -0.0000000000000000000, -0.0000000000000000000, -1.000000000000000000 ) ) ;
#39 = AXIS2_PLACEMENT_3D ( 'NONE', #15, #6, #1 ) ;
#40 = CARTESIAN_POINT ( 'NONE',  ( 0.0000000000000000000, 20.00000000000000000, 6.000000000000000000 ) ) ;
#41 = DIRECTION ( 'NONE',  ( 0.0000000000000000000, 0.0000000000000000000, -1.000000000000000000 ) ) ;
#42 = VECTOR ( 'NONE', #202, 1000.000000000000000 ) ;
#43 = COLOUR_RGB ( '',1.000000000000000000, 1.000000000000000000, 1.000000000000000000 ) ;
#44 = APPLICATION_CONTEXT ( 'automotive_design' ) ;
#45 = CARTESIAN_POINT ( 'NONE',  ( 8.999999999999998200, 10.00000000000000000, 6.000000000000000000 ) ) ;
#46 = DIRECTION ( 'NONE',  ( 0.0000000000000000000, 1.000000000000000000, 0.0000000000000000000 ) ) ;
#47 = PRODUCT_CONTEXT ( 'NONE', #125, 'mechanical' ) ;
#48 = EDGE_LOOP ( 'NONE', ( #25, #134, #57, #63 ) ) ;
#49 = DIRECTION ( 'NONE',  ( 1.000000000000000000, 0.0000000000000000000, 0.0000000000000000000 ) ) ;
#50 = DIRECTION ( 'NONE',  ( 0.0000000000000000000, 0.0000000000000000000, -1.000000000000000000 ) ) ;
#51 = LINE ( 'NONE', #127, #270 ) ;
#52 = VECTOR ( 'NONE', #262, 1000.000000000000000 ) ;
#53 = MANIFOLD_SOLID_BREP ( 'Basis-Linear austragen', #225 ) ;
#54 = ORIENTED_EDGE ( 'NONE', *, *, #210, .T. ) ;
#55 = EDGE_CURVE ( 'NONE', #7, #33, #51, .T. ) ;
#56 = AXIS2_PLACEMENT_3D ( 'NONE', #74, #62, #50 ) ;
#57 = ORIENTED_EDGE ( 'NONE', *, *, #140, .F. ) ;
#58 = FACE_OUTER_BOUND ( 'NONE', #248, .T. ) ;
#59 = ADVANCED_FACE ( 'NONE', ( #233 ), #112, .F. ) ;
#60 = DIRECTION ( 'NONE',  ( -0.0000000000000000000, -1.000000000000000000, -0.0000000000000000000 ) ) ;
#61 = SHAPE_DEFINITION_REPRESENTATION ( #105, #190 ) ;
#62 = DIRECTION ( 'NONE',  ( 1.000000000000000000, 0.0000000000000000000, 0.0000000000000000000 ) ) ;
#63 = ORIENTED_EDGE ( 'NONE', *, *, #84, .T. ) ;
#64 =( NAMED_UNIT ( * ) SI_UNIT ( $, .STERADIAN. ) SOLID_ANGLE_UNIT ( ) );
#65 = VERTEX_POINT ( 'NONE', #120 ) ;
#66 = CARTESIAN_POINT ( 'NONE',  ( 0.0000000000000000000, 0.0000000000000000000, 6.000000000000000000 ) ) ;
#67 = AXIS2_PLACEMENT_3D ( 'NONE', #148, #167, #49 ) ;
#68 = FACE_OUTER_BOUND ( 'NONE', #111, .T. ) ;
#69 =( NAMED_UNIT ( * ) PLANE_ANGLE_UNIT ( ) SI_UNIT ( $, .RADIAN. ) );
#70 = DIRECTION ( 'NONE',  ( -1.000000000000000000, -0.0000000000000000000, -0.0000000000000000000 ) ) ;
#71 = EDGE_CURVE ( 'NONE', #65, #18, #12, .T. ) ;
#72 = PLANE ( 'NONE',  #56 ) ;
#73 = AXIS2_PLACEMENT_3D ( 'NONE', #20, #215, #199 ) ;
#74 = CARTESIAN_POINT ( 'NONE',  ( 0.0000000000000000000, 0.0000000000000000000, 6.000000000000000000 ) ) ;
#75 = ORIENTED_EDGE ( 'NONE', *, *, #126, .F. ) ;
#76 = CYLINDRICAL_SURFACE ( 'NONE', #230, 3.400000000000000400 ) ;
#77 = LINE ( 'NONE', #40, #13 ) ;
#78 =( LENGTH_UNIT ( ) NAMED_UNIT ( * ) SI_UNIT ( .MILLI., .METRE. ) );
#79 = ORIENTED_EDGE ( 'NONE', *, *, #96, .F. ) ;
#80 = SURFACE_STYLE_FILL_AREA ( #170 ) ;
#81 = PRODUCT_DEFINITION ( 'UNKNOWN', '', #124, #196 ) ;
#82 = ADVANCED_FACE ( 'NONE', ( #265 ), #72, .F. ) ;
#83 = UNCERTAINTY_MEASURE_WITH_UNIT (LENGTH_MEASURE( 1.000000000000000100E-005 ), #145, 'distance_accuracy_value', 'NONE');
#84 = EDGE_CURVE ( 'NONE', #17, #122, #208, .T. ) ;
#85 = EDGE_LOOP ( 'NONE', ( #54, #107, #79, #90 ) ) ;
#86 = SURFACE_STYLE_USAGE ( .BOTH. , #87 ) ;
#87 = SURFACE_SIDE_STYLE ('',( #35 ) ) ;
#88 = CARTESIAN_POINT ( 'NONE',  ( 5.599999999999996100, 10.00000000000000000, 0.0000000000000000000 ) ) ;
#89 = PRODUCT ( '096p0201806m8', '096p0201806m8', '', ( #47 ) ) ;
#90 = ORIENTED_EDGE ( 'NONE', *, *, #154, .F. ) ;
#91 = CARTESIAN_POINT ( 'NONE',  ( 0.0000000000000000000, 20.00000000000000000, 6.000000000000000000 ) ) ;
#92 = CARTESIAN_POINT ( 'NONE',  ( 18.00000000000000000, 2.204291436880279100E-015, 6.000000000000000000 ) ) ;
#93 = DIRECTION ( 'NONE',  ( 0.0000000000000000000, 0.0000000000000000000, 1.000000000000000000 ) ) ;
#94 = DIRECTION ( 'NONE',  ( -1.000000000000000000, 0.0000000000000000000, 0.0000000000000000000 ) ) ;
#95 = FACE_OUTER_BOUND ( 'NONE', #48, .T. ) ;
#96 = EDGE_CURVE ( 'NONE', #251, #275, #102, .T. ) ;
#97 = ORIENTED_EDGE ( 'NONE', *, *, #252, .F. ) ;
#98 = ORIENTED_EDGE ( 'NONE', *, *, #5, .T. ) ;
#99 = AXIS2_PLACEMENT_3D ( 'NONE', #45, #36, #32 ) ;
#100 = UNCERTAINTY_MEASURE_WITH_UNIT (LENGTH_MEASURE( 1.000000000000000100E-005 ), #157, 'distance_accuracy_value', 'NONE');
#101 = ADVANCED_FACE ( 'NONE', ( #216 ), #144, .F. ) ;
#102 = CIRCLE ( 'NONE', #39, 3.400000000000000400 ) ;
#103 = LINE ( 'NONE', #197, #52 ) ;
#104 = CARTESIAN_POINT ( 'NONE',  ( 18.00000000000000000, 20.00000000000000000, 6.000000000000000000 ) ) ;
#105 = PRODUCT_DEFINITION_SHAPE ( 'NONE', 'NONE',  #81 ) ;
#106 = PLANE ( 'NONE',  #203 ) ;
#107 = ORIENTED_EDGE ( 'NONE', *, *, #239, .T. ) ;
#108 = FILL_AREA_STYLE ('',( #113 ) ) ;
#109 = DIRECTION ( 'NONE',  ( 1.000000000000000000, 0.0000000000000000000, 0.0000000000000000000 ) ) ;
#110 = VECTOR ( 'NONE', #70, 1000.000000000000000 ) ;
#111 = EDGE_LOOP ( 'NONE', ( #232, #191, #97, #129 ) ) ;
#112 = PLANE ( 'NONE',  #26 ) ;
#113 = FILL_AREA_STYLE_COLOUR ( '', #43 ) ;
#114 = EDGE_CURVE ( 'NONE', #183, #65, #257, .T. ) ;
#115 = DIRECTION ( 'NONE',  ( 0.0000000000000000000, 0.0000000000000000000, 1.000000000000000000 ) ) ;
#116 = AXIS2_PLACEMENT_3D ( 'NONE', #178, #41, #259 ) ;
#117 = CARTESIAN_POINT ( 'NONE',  ( 8.999999999999998200, 10.00000000000000000, 6.000000000000000000 ) ) ;
#118 = ORIENTED_EDGE ( 'NONE', *, *, #16, .F. ) ;
#119 = DIRECTION ( 'NONE',  ( -0.0000000000000000000, -0.0000000000000000000, -1.000000000000000000 ) ) ;
#120 = CARTESIAN_POINT ( 'NONE',  ( 18.00000000000000000, 2.204291436880279100E-015, 6.000000000000000000 ) ) ;
#121 = VECTOR ( 'NONE', #175, 1000.000000000000000 ) ;
#122 = VERTEX_POINT ( 'NONE', #24 ) ;
#123 = VECTOR ( 'NONE', #241, 1000.000000000000000 ) ;
#124 = PRODUCT_DEFINITION_FORMATION_WITH_SPECIFIED_SOURCE ( 'ANY', '', #89, .NOT_KNOWN. ) ;
#125 = APPLICATION_CONTEXT ( 'automotive_design' ) ;
#126 = EDGE_CURVE ( 'NONE', #65, #17, #244, .T. ) ;
#127 = CARTESIAN_POINT ( 'NONE',  ( 0.0000000000000000000, 20.00000000000000000, 6.000000000000000000 ) ) ;
#128 = ORIENTED_EDGE ( 'NONE', *, *, #168, .F. ) ;
#129 = ORIENTED_EDGE ( 'NONE', *, *, #268, .F. ) ;
#130 = COLOUR_RGB ( '',1.000000000000000000, 1.000000000000000000, 1.000000000000000000 ) ;
#131 = FACE_BOUND ( 'NONE', #165, .T. ) ;
#132 = APPLICATION_PROTOCOL_DEFINITION ( 'draft international standard', 'automotive_design', 1998, #125 ) ;
#133 = CARTESIAN_POINT ( 'NONE',  ( 12.39999999999999900, 10.00000000000000000, 6.000000000000000000 ) ) ;
#134 = ORIENTED_EDGE ( 'NONE', *, *, #55, .F. ) ;
#135 =( NAMED_UNIT ( * ) SI_UNIT ( $, .STERADIAN. ) SOLID_ANGLE_UNIT ( ) );
#136 = CIRCLE ( 'NONE', #34, 3.400000000000000400 ) ;
#137 =( NAMED_UNIT ( * ) SI_UNIT ( $, .STERADIAN. ) SOLID_ANGLE_UNIT ( ) );
#138 =( NAMED_UNIT ( * ) PLANE_ANGLE_UNIT ( ) SI_UNIT ( $, .RADIAN. ) );
#139 = PRODUCT_RELATED_PRODUCT_CATEGORY ( 'part', '', ( #89 ) ) ;
#140 = EDGE_CURVE ( 'NONE', #17, #7, #77, .T. ) ;
#141 = ORIENTED_EDGE ( 'NONE', *, *, #239, .F. ) ;
#142 = UNCERTAINTY_MEASURE_WITH_UNIT (LENGTH_MEASURE( 1.000000000000000100E-005 ), #78, 'distance_accuracy_value', 'NONE');
#143 = AXIS2_PLACEMENT_3D ( 'NONE', #117, #115, #109 ) ;
#144 = CYLINDRICAL_SURFACE ( 'NONE', #99, 3.400000000000000400 ) ;
#145 =( LENGTH_UNIT ( ) NAMED_UNIT ( * ) SI_UNIT ( .MILLI., .METRE. ) );
#146 = ORIENTED_EDGE ( 'NONE', *, *, #5, .F. ) ;
#147 = PLANE ( 'NONE',  #116 ) ;
#148 = CARTESIAN_POINT ( 'NONE',  ( 0.0000000000000000000, 0.0000000000000000000, 0.0000000000000000000 ) ) ;
#149 = VECTOR ( 'NONE', #28, 1000.000000000000000 ) ;
#150 = VERTEX_POINT ( 'NONE', #264 ) ;
#151 = DIRECTION ( 'NONE',  ( 0.0000000000000000000, -0.0000000000000000000, -1.000000000000000000 ) ) ;
#152 = ORIENTED_EDGE ( 'NONE', *, *, #252, .T. ) ;
#153 =( NAMED_UNIT ( * ) PLANE_ANGLE_UNIT ( ) SI_UNIT ( $, .RADIAN. ) );
#154 = EDGE_CURVE ( 'NONE', #3, #251, #181, .T. ) ;
#155 = DIRECTION ( 'NONE',  ( 0.0000000000000000000, -1.000000000000000000, 0.0000000000000000000 ) ) ;
#156 = AXIS2_PLACEMENT_3D ( 'NONE', #209, #212, #173 ) ;
#157 =( LENGTH_UNIT ( ) NAMED_UNIT ( * ) SI_UNIT ( .MILLI., .METRE. ) );
#158 = SURFACE_STYLE_USAGE ( .BOTH. , #159 ) ;
#159 = SURFACE_SIDE_STYLE ('',( #80 ) ) ;
#160 = VECTOR ( 'NONE', #38, 1000.000000000000000 ) ;
#161 = LINE ( 'NONE', #274, #266 ) ;
#162 = ORIENTED_EDGE ( 'NONE', *, *, #140, .T. ) ;
#163 = ORIENTED_EDGE ( 'NONE', *, *, #71, .T. ) ;
#164 = LINE ( 'NONE', #133, #271 ) ;
#165 = EDGE_LOOP ( 'NONE', ( #223, #98 ) ) ;
#166 = ADVANCED_FACE ( 'NONE', ( #68, #131 ), #147, .T. ) ;
#167 = DIRECTION ( 'NONE',  ( 0.0000000000000000000, 0.0000000000000000000, 1.000000000000000000 ) ) ;
#168 = EDGE_CURVE ( 'NONE', #7, #183, #229, .T. ) ;
#169 = CARTESIAN_POINT ( 'NONE',  ( 0.0000000000000000000, 20.00000000000000000, 6.000000000000000000 ) ) ;
#170 = FILL_AREA_STYLE ('',( #231 ) ) ;
#171 = ORIENTED_EDGE ( 'NONE', *, *, #182, .T. ) ;
#172 = DIRECTION ( 'NONE',  ( -0.0000000000000000000, -0.0000000000000000000, -1.000000000000000000 ) ) ;
#173 = DIRECTION ( 'NONE',  ( -1.000000000000000000, -1.224606353822377300E-016, 0.0000000000000000000 ) ) ;
#174 = LINE ( 'NONE', #195, #121 ) ;
#175 = DIRECTION ( 'NONE',  ( -0.0000000000000000000, -1.000000000000000000, -0.0000000000000000000 ) ) ;
#176 = CARTESIAN_POINT ( 'NONE',  ( 0.0000000000000000000, 20.00000000000000000, 0.0000000000000000000 ) ) ;
#177 = PLANE ( 'NONE',  #227 ) ;
#178 = CARTESIAN_POINT ( 'NONE',  ( 0.0000000000000000000, 20.00000000000000000, 0.0000000000000000000 ) ) ;
#179 = ORIENTED_EDGE ( 'NONE', *, *, #16, .T. ) ;
#180 = PRESENTATION_STYLE_ASSIGNMENT (( #158 ) ) ;
#181 = LINE ( 'NONE', #211, #123 ) ;
#182 = EDGE_CURVE ( 'NONE', #10, #3, #235, .T. ) ;
#183 = VERTEX_POINT ( 'NONE', #66 ) ;
#184 = VECTOR ( 'NONE', #189, 1000.000000000000000 ) ;
#185 = VECTOR ( 'NONE', #188, 1000.000000000000000 ) ;
#186 = ADVANCED_FACE ( 'NONE', ( #58 ), #214, .F. ) ;
#187 = PRESENTATION_STYLE_ASSIGNMENT (( #86 ) ) ;
#188 = DIRECTION ( 'NONE',  ( 0.0000000000000000000, 1.000000000000000000, 0.0000000000000000000 ) ) ;
#189 = DIRECTION ( 'NONE',  ( -0.0000000000000000000, -0.0000000000000000000, -1.000000000000000000 ) ) ;
#190 = ADVANCED_BREP_SHAPE_REPRESENTATION ( '096p0201806m8', ( #53, #67 ), #213 ) ;
#191 = ORIENTED_EDGE ( 'NONE', *, *, #226, .F. ) ;
#192 = ORIENTED_EDGE ( 'NONE', *, *, #200, .T. ) ;
#193 = CARTESIAN_POINT ( 'NONE',  ( 0.0000000000000000000, 0.0000000000000000000, 6.000000000000000000 ) ) ;
#194 = EDGE_LOOP ( 'NONE', ( #192, #118, #128, #201 ) ) ;
#195 = CARTESIAN_POINT ( 'NONE',  ( 0.0000000000000000000, 0.0000000000000000000, 0.0000000000000000000 ) ) ;
#196 = PRODUCT_DEFINITION_CONTEXT ( 'detailed design', #44, 'design' ) ;
#197 = CARTESIAN_POINT ( 'NONE',  ( 0.0000000000000000000, 0.0000000000000000000, 0.0000000000000000000 ) ) ;
#198 = EDGE_LOOP ( 'NONE', ( #205, #27, #247, #162 ) ) ;
#199 = DIRECTION ( 'NONE',  ( 1.000000000000000000, 0.0000000000000000000, 0.0000000000000000000 ) ) ;
#200 = EDGE_CURVE ( 'NONE', #33, #150, #174, .T. ) ;
#201 = ORIENTED_EDGE ( 'NONE', *, *, #55, .T. ) ;
#202 = DIRECTION ( 'NONE',  ( -0.0000000000000000000, -0.0000000000000000000, -1.000000000000000000 ) ) ;
#203 = AXIS2_PLACEMENT_3D ( 'NONE', #91, #31, #19 ) ;
#204 = CARTESIAN_POINT ( 'NONE',  ( 18.00000000000000000, 2.204291436880279100E-015, 0.0000000000000000000 ) ) ;
#205 = ORIENTED_EDGE ( 'NONE', *, *, #168, .T. ) ;
#206 = PRESENTATION_LAYER_ASSIGNMENT (  '', '', ( #220 ) ) ;
#207 = ORIENTED_EDGE ( 'NONE', *, *, #114, .F. ) ;
#208 = LINE ( 'NONE', #104, #160 ) ;
#209 = CARTESIAN_POINT ( 'NONE',  ( 0.0000000000000000000, 0.0000000000000000000, 6.000000000000000000 ) ) ;
#210 = EDGE_CURVE ( 'NONE', #3, #10, #276, .T. ) ;
#211 = CARTESIAN_POINT ( 'NONE',  ( 5.599999999999997000, 10.00000000000000000, 6.000000000000000000 ) ) ;
#212 = DIRECTION ( 'NONE',  ( -1.224606353822377300E-016, 1.000000000000000000, 0.0000000000000000000 ) ) ;
#213 =( GEOMETRIC_REPRESENTATION_CONTEXT ( 3 ) GLOBAL_UNCERTAINTY_ASSIGNED_CONTEXT ( ( #83 ) ) GLOBAL_UNIT_ASSIGNED_CONTEXT ( ( #145, #138, #135 ) ) REPRESENTATION_CONTEXT ( 'NONE', 'WORKASPACE' ) );
#214 = PLANE ( 'NONE',  #156 ) ;
#215 = DIRECTION ( 'NONE',  ( 0.0000000000000000000, 0.0000000000000000000, 1.000000000000000000 ) ) ;
#216 = FACE_OUTER_BOUND ( 'NONE', #85, .T. ) ;
#217 = FACE_BOUND ( 'NONE', #11, .T. ) ;
#218 = DIRECTION ( 'NONE',  ( -1.000000000000000000, -0.0000000000000000000, -0.0000000000000000000 ) ) ;
#219 = ORIENTED_EDGE ( 'NONE', *, *, #154, .T. ) ;
#220 = STYLED_ITEM ( 'NONE', ( #180 ), #53 ) ;
#221 = CARTESIAN_POINT ( 'NONE',  ( 0.0000000000000000000, 0.0000000000000000000, 6.000000000000000000 ) ) ;
#222 = CARTESIAN_POINT ( 'NONE',  ( 18.00000000000000000, 20.00000000000000000, 6.000000000000000000 ) ) ;
#223 = ORIENTED_EDGE ( 'NONE', *, *, #96, .T. ) ;
#224 = LINE ( 'NONE', #176, #110 ) ;
#225 = CLOSED_SHELL ( 'NONE', ( #101, #249, #166, #82, #186, #59, #272, #14 ) ) ;
#226 = EDGE_CURVE ( 'NONE', #122, #33, #224, .T. ) ;
#227 = AXIS2_PLACEMENT_3D ( 'NONE', #169, #155, #151 ) ;
#228 = ORIENTED_EDGE ( 'NONE', *, *, #268, .T. ) ;
#229 = LINE ( 'NONE', #193, #23 ) ;
#230 = AXIS2_PLACEMENT_3D ( 'NONE', #263, #245, #236 ) ;
#231 = FILL_AREA_STYLE_COLOUR ( '', #130 ) ;
#232 = ORIENTED_EDGE ( 'NONE', *, *, #200, .F. ) ;
#234 = CARTESIAN_POINT ( 'NONE',  ( 0.0000000000000000000, 20.00000000000000000, 0.0000000000000000000 ) ) ;
#233 = FACE_OUTER_BOUND ( 'NONE', #30, .T. ) ;
#235 = CIRCLE ( 'NONE', #73, 3.400000000000000400 ) ;
#236 = DIRECTION ( 'NONE',  ( -1.000000000000000000, 0.0000000000000000000, 0.0000000000000000000 ) ) ;
#237 = DIRECTION ( 'NONE',  ( 1.000000000000000000, 0.0000000000000000000, 0.0000000000000000000 ) ) ;
#238 = CARTESIAN_POINT ( 'NONE',  ( 12.39999999999999900, 10.00000000000000000, 0.0000000000000000000 ) ) ;
#239 = EDGE_CURVE ( 'NONE', #10, #275, #164, .T. ) ;
#240 = ORIENTED_EDGE ( 'NONE', *, *, #210, .F. ) ;
#241 = DIRECTION ( 'NONE',  ( -0.0000000000000000000, -0.0000000000000000000, -1.000000000000000000 ) ) ;
#242 = DIRECTION ( 'NONE',  ( 0.0000000000000000000, 0.0000000000000000000, 1.000000000000000000 ) ) ;
#243 = FACE_OUTER_BOUND ( 'NONE', #267, .T. ) ;
#244 = LINE ( 'NONE', #253, #185 ) ;
#245 = DIRECTION ( 'NONE',  ( -0.0000000000000000000, -0.0000000000000000000, -1.000000000000000000 ) ) ;
#246 = MECHANICAL_DESIGN_GEOMETRIC_PRESENTATION_REPRESENTATION (  '', ( #220 ), #261 ) ;
#247 = ORIENTED_EDGE ( 'NONE', *, *, #126, .T. ) ;
#248 = EDGE_LOOP ( 'NONE', ( #228, #250, #207, #179 ) ) ;
#249 = ADVANCED_FACE ( 'NONE', ( #9, #217 ), #106, .F. ) ;
#250 = ORIENTED_EDGE ( 'NONE', *, *, #71, .F. ) ;
#251 = VERTEX_POINT ( 'NONE', #88 ) ;
#252 = EDGE_CURVE ( 'NONE', #18, #122, #161, .T. ) ;
#253 = CARTESIAN_POINT ( 'NONE',  ( 18.00000000000000000, 2.204291436880279100E-015, 6.000000000000000000 ) ) ;
#254 = STYLED_ITEM ( 'NONE', ( #187 ), #190 ) ;
#255 = CARTESIAN_POINT ( 'NONE',  ( 5.599999999999996100, 10.00000000000000000, 6.000000000000000000 ) ) ;
#256 = CARTESIAN_POINT ( 'NONE',  ( 12.39999999999999900, 10.00000000000000000, 6.000000000000000000 ) ) ;
#257 = LINE ( 'NONE', #258, #149 ) ;
#258 = CARTESIAN_POINT ( 'NONE',  ( 0.0000000000000000000, 0.0000000000000000000, 6.000000000000000000 ) ) ;
#259 = DIRECTION ( 'NONE',  ( -1.000000000000000000, 0.0000000000000000000, -0.0000000000000000000 ) ) ;
#260 = ORIENTED_EDGE ( 'NONE', *, *, #84, .F. ) ;
#261 =( GEOMETRIC_REPRESENTATION_CONTEXT ( 3 ) GLOBAL_UNCERTAINTY_ASSIGNED_CONTEXT ( ( #100 ) ) GLOBAL_UNIT_ASSIGNED_CONTEXT ( ( #157, #153, #137 ) ) REPRESENTATION_CONTEXT ( 'NONE', 'WORKASPACE' ) );
#262 = DIRECTION ( 'NONE',  ( 1.000000000000000000, 1.224606353822377300E-016, 0.0000000000000000000 ) ) ;
#263 = CARTESIAN_POINT ( 'NONE',  ( 8.999999999999998200, 10.00000000000000000, 6.000000000000000000 ) ) ;
#264 = CARTESIAN_POINT ( 'NONE',  ( 0.0000000000000000000, 0.0000000000000000000, 0.0000000000000000000 ) ) ;
#265 = FACE_OUTER_BOUND ( 'NONE', #194, .T. ) ;
#266 = VECTOR ( 'NONE', #46, 1000.000000000000000 ) ;
#267 = EDGE_LOOP ( 'NONE', ( #141, #171, #219, #146 ) ) ;
#268 = EDGE_CURVE ( 'NONE', #150, #18, #103, .T. ) ;
#269 = PRESENTATION_LAYER_ASSIGNMENT (  '', '', ( #254 ) ) ;
#270 = VECTOR ( 'NONE', #119, 1000.000000000000000 ) ;
#271 = VECTOR ( 'NONE', #172, 1000.000000000000000 ) ;
#272 = ADVANCED_FACE ( 'NONE', ( #95 ), #177, .F. ) ;
#273 = CARTESIAN_POINT ( 'NONE',  ( 18.00000000000000000, 2.204291436880279100E-015, 6.000000000000000000 ) ) ;
#274 = CARTESIAN_POINT ( 'NONE',  ( 18.00000000000000000, 2.204291436880279100E-015, 0.0000000000000000000 ) ) ;
#275 = VERTEX_POINT ( 'NONE', #238 ) ;
#276 = CIRCLE ( 'NONE', #143, 3.400000000000000400 ) ;
ENDSEC;
END-ISO-10303-21;
