ISO-10303-21;
HEADER;
FILE_DESCRIPTION (( 'STEP AP214' ),
    '1' );
FILE_NAME ('096p0201406m8.STEP',
    '2014-08-18T12:43:37',
    ( '' ),
    ( '' ),
    'SwSTEP 2.0',
    'SolidWorks 2014',
    '' );
FILE_SCHEMA (( 'AUTOMOTIVE_DESIGN' ));
ENDSEC;

DATA;
#1 = DIRECTION ( 'NONE',  ( 0.0000000000000000000, 0.0000000000000000000, 1.000000000000000000 ) ) ;
#2 = ORIENTED_EDGE ( 'NONE', *, *, #117, .F. ) ;
#3 = FACE_OUTER_BOUND ( 'NONE', #60, .T. ) ;
#4 = ORIENTED_EDGE ( 'NONE', *, *, #197, .F. ) ;
#5 = CARTESIAN_POINT ( 'NONE',  ( 10.30000000000000100, 10.00000000000000200, 0.0000000000000000000 ) ) ;
#6 = CYLINDRICAL_SURFACE ( 'NONE', #238, 3.300000000000001200 ) ;
#7 = ADVANCED_FACE ( 'NONE', ( #229, #45 ), #145, .F. ) ;
#8 = CARTESIAN_POINT ( 'NONE',  ( 6.999999999999999100, 10.00000000000000200, 6.000000000000000000 ) ) ;
#9 = EDGE_LOOP ( 'NONE', ( #150, #149, #116, #171 ) ) ;
#10 = CARTESIAN_POINT ( 'NONE',  ( 6.999999999999999100, 10.00000000000000200, 6.000000000000000000 ) ) ;
#11 = PLANE ( 'NONE',  #129 ) ;
#12 = EDGE_CURVE ( 'NONE', #264, #181, #167, .T. ) ;
#13 = CARTESIAN_POINT ( 'NONE',  ( 14.00000000000000000, 1.714448895351328200E-015, 0.0000000000000000000 ) ) ;
#14 = DIRECTION ( 'NONE',  ( 0.0000000000000000000, 0.0000000000000000000, 1.000000000000000000 ) ) ;
#15 = LINE ( 'NONE', #13, #78 ) ;
#16 = ORIENTED_EDGE ( 'NONE', *, *, #188, .T. ) ;
#17 = DIRECTION ( 'NONE',  ( -0.0000000000000000000, -0.0000000000000000000, -1.000000000000000000 ) ) ;
#18 = PRESENTATION_LAYER_ASSIGNMENT (  '', '', ( #271 ) ) ;
#19 = CARTESIAN_POINT ( 'NONE',  ( 6.999999999999999100, 10.00000000000000200, 6.000000000000000000 ) ) ;
#20 = DIRECTION ( 'NONE',  ( -0.0000000000000000000, -0.0000000000000000000, -1.000000000000000000 ) ) ;
#21 = ADVANCED_BREP_SHAPE_REPRESENTATION ( '096p0201406m8', ( #42, #107 ), #211 ) ;
#22 = DIRECTION ( 'NONE',  ( 1.000000000000000000, -2.478176394252581600E-016, 0.0000000000000000000 ) ) ;
#23 = DIRECTION ( 'NONE',  ( -2.478176394252581600E-016, -1.000000000000000000, 0.0000000000000000000 ) ) ;
#24 = FACE_OUTER_BOUND ( 'NONE', #119, .T. ) ;
#25 = CARTESIAN_POINT ( 'NONE',  ( 0.0000000000000000000, 0.0000000000000000000, 6.000000000000000000 ) ) ;
#26 = DIRECTION ( 'NONE',  ( -1.000000000000000000, 0.0000000000000000000, 0.0000000000000000000 ) ) ;
#27 = ORIENTED_EDGE ( 'NONE', *, *, #85, .F. ) ;
#28 = EDGE_CURVE ( 'NONE', #218, #262, #258, .T. ) ;
#29 = PRESENTATION_STYLE_ASSIGNMENT (( #75 ) ) ;
#30 = VERTEX_POINT ( 'NONE', #115 ) ;
#31 = CIRCLE ( 'NONE', #146, 3.300000000000000700 ) ;
#32 = DIRECTION ( 'NONE',  ( -0.0000000000000000000, -0.0000000000000000000, -1.000000000000000000 ) ) ;
#33 = MECHANICAL_DESIGN_GEOMETRIC_PRESENTATION_REPRESENTATION (  '', ( #271 ), #53 ) ;
#34 = ADVANCED_FACE ( 'NONE', ( #202 ), #104, .F. ) ;
#35 = CARTESIAN_POINT ( 'NONE',  ( 3.699999999999998000, 10.00000000000000200, 6.000000000000000000 ) ) ;
#36 = CARTESIAN_POINT ( 'NONE',  ( 0.0000000000000000000, 20.00000000000000000, 6.000000000000000000 ) ) ;
#37 = DIRECTION ( 'NONE',  ( -1.000000000000000000, 2.478176394252581600E-016, -0.0000000000000000000 ) ) ;
#38 = VECTOR ( 'NONE', #126, 1000.000000000000000 ) ;
#39 = VECTOR ( 'NONE', #37, 1000.000000000000000 ) ;
#40 = PLANE ( 'NONE',  #158 ) ;
#41 = CARTESIAN_POINT ( 'NONE',  ( 0.0000000000000000000, 20.00000000000000000, 6.000000000000000000 ) ) ;
#42 = MANIFOLD_SOLID_BREP ( 'Basis-Linear austragen', #170 ) ;
#43 = DIRECTION ( 'NONE',  ( 0.0000000000000000000, 1.000000000000000000, 0.0000000000000000000 ) ) ;
#44 = CARTESIAN_POINT ( 'NONE',  ( 3.699999999999998000, 10.00000000000000200, 6.000000000000000000 ) ) ;
#45 = FACE_BOUND ( 'NONE', #72, .T. ) ;
#47 = EDGE_CURVE ( 'NONE', #130, #56, #209, .T. ) ;
#46 = DIRECTION ( 'NONE',  ( -0.0000000000000000000, -0.0000000000000000000, -1.000000000000000000 ) ) ;
#48 = CARTESIAN_POINT ( 'NONE',  ( 10.30000000000000100, 10.00000000000000200, 6.000000000000000000 ) ) ;
#49 = ORIENTED_EDGE ( 'NONE', *, *, #267, .T. ) ;
#50 = DIRECTION ( 'NONE',  ( -0.0000000000000000000, -0.0000000000000000000, -1.000000000000000000 ) ) ;
#51 = CARTESIAN_POINT ( 'NONE',  ( 0.0000000000000000000, 20.00000000000000000, 0.0000000000000000000 ) ) ;
#52 = ORIENTED_EDGE ( 'NONE', *, *, #267, .F. ) ;
#53 =( GEOMETRIC_REPRESENTATION_CONTEXT ( 3 ) GLOBAL_UNCERTAINTY_ASSIGNED_CONTEXT ( ( #157 ) ) GLOBAL_UNIT_ASSIGNED_CONTEXT ( ( #139, #137, #127 ) ) REPRESENTATION_CONTEXT ( 'NONE', 'WORKASPACE' ) );
#54 = DIRECTION ( 'NONE',  ( 1.000000000000000000, 0.0000000000000000000, 0.0000000000000000000 ) ) ;
#55 = CARTESIAN_POINT ( 'NONE',  ( 0.0000000000000000000, 20.00000000000000000, 6.000000000000000000 ) ) ;
#56 = VERTEX_POINT ( 'NONE', #48 ) ;
#57 = DIRECTION ( 'NONE',  ( 0.0000000000000000000, 0.0000000000000000000, -1.000000000000000000 ) ) ;
#58 = ADVANCED_FACE ( 'NONE', ( #210 ), #11, .F. ) ;
#59 = DIRECTION ( 'NONE',  ( 0.0000000000000000000, 1.000000000000000000, 0.0000000000000000000 ) ) ;
#60 = EDGE_LOOP ( 'NONE', ( #91, #179, #4, #52 ) ) ;
#61 = ORIENTED_EDGE ( 'NONE', *, *, #12, .T. ) ;
#62 = CARTESIAN_POINT ( 'NONE',  ( 0.0000000000000000000, 0.0000000000000000000, 0.0000000000000000000 ) ) ;
#63 = EDGE_CURVE ( 'NONE', #56, #181, #110, .T. ) ;
#64 =( NAMED_UNIT ( * ) SI_UNIT ( $, .STERADIAN. ) SOLID_ANGLE_UNIT ( ) );
#65 =( NAMED_UNIT ( * ) PLANE_ANGLE_UNIT ( ) SI_UNIT ( $, .RADIAN. ) );
#66 =( LENGTH_UNIT ( ) NAMED_UNIT ( * ) SI_UNIT ( .MILLI., .METRE. ) );
#67 = ORIENTED_EDGE ( 'NONE', *, *, #219, .T. ) ;
#68 = CARTESIAN_POINT ( 'NONE',  ( 14.00000000000000000, 1.714448895351328200E-015, 6.000000000000000000 ) ) ;
#69 = CARTESIAN_POINT ( 'NONE',  ( 0.0000000000000000000, 0.0000000000000000000, 6.000000000000000000 ) ) ;
#70 = VECTOR ( 'NONE', #50, 1000.000000000000000 ) ;
#71 = DIRECTION ( 'NONE',  ( 1.000000000000000000, 1.224606353822377300E-016, 0.0000000000000000000 ) ) ;
#72 = EDGE_LOOP ( 'NONE', ( #213, #180 ) ) ;
#73 = DIRECTION ( 'NONE',  ( -0.0000000000000000000, -1.000000000000000000, -0.0000000000000000000 ) ) ;
#74 = ORIENTED_EDGE ( 'NONE', *, *, #249, .T. ) ;
#75 = SURFACE_STYLE_USAGE ( .BOTH. , #90 ) ;
#76 = PRODUCT_DEFINITION_CONTEXT ( 'detailed design', #237, 'design' ) ;
#77 = DIRECTION ( 'NONE',  ( -1.000000000000000000, 0.0000000000000000000, -0.0000000000000000000 ) ) ;
#78 = VECTOR ( 'NONE', #59, 1000.000000000000000 ) ;
#79 = CARTESIAN_POINT ( 'NONE',  ( 0.0000000000000000000, 0.0000000000000000000, 6.000000000000000000 ) ) ;
#80 = AXIS2_PLACEMENT_3D ( 'NONE', #10, #142, #92 ) ;
#81 = ORIENTED_EDGE ( 'NONE', *, *, #12, .F. ) ;
#82 = FACE_OUTER_BOUND ( 'NONE', #215, .T. ) ;
#83 = DIRECTION ( 'NONE',  ( -0.0000000000000000000, -1.000000000000000000, -0.0000000000000000000 ) ) ;
#84 = ORIENTED_EDGE ( 'NONE', *, *, #63, .T. ) ;
#85 = EDGE_CURVE ( 'NONE', #30, #193, #259, .T. ) ;
#86 = DIRECTION ( 'NONE',  ( -1.000000000000000000, 2.478176394252581600E-016, -0.0000000000000000000 ) ) ;
#87 = CYLINDRICAL_SURFACE ( 'NONE', #191, 3.300000000000001200 ) ;
#88 = CARTESIAN_POINT ( 'NONE',  ( 14.00000000000000000, 19.99999999999999600, 0.0000000000000000000 ) ) ;
#89 = APPLICATION_PROTOCOL_DEFINITION ( 'draft international standard', 'automotive_design', 1998, #237 ) ;
#90 = SURFACE_SIDE_STYLE ('',( #105 ) ) ;
#91 = ORIENTED_EDGE ( 'NONE', *, *, #163, .F. ) ;
#92 = DIRECTION ( 'NONE',  ( 1.000000000000000000, 0.0000000000000000000, 0.0000000000000000000 ) ) ;
#93 = CARTESIAN_POINT ( 'NONE',  ( 10.30000000000000100, 10.00000000000000200, 6.000000000000000000 ) ) ;
#94 = UNCERTAINTY_MEASURE_WITH_UNIT (LENGTH_MEASURE( 1.000000000000000100E-005 ), #268, 'distance_accuracy_value', 'NONE');
#95 = DIRECTION ( 'NONE',  ( 0.0000000000000000000, 0.0000000000000000000, 1.000000000000000000 ) ) ;
#96 = LINE ( 'NONE', #134, #196 ) ;
#97 = DIRECTION ( 'NONE',  ( -1.000000000000000000, 0.0000000000000000000, 0.0000000000000000000 ) ) ;
#98 = FILL_AREA_STYLE ('',( #147 ) ) ;
#99 = CARTESIAN_POINT ( 'NONE',  ( 14.00000000000000000, 1.714448895351328200E-015, 6.000000000000000000 ) ) ;
#100 = DIRECTION ( 'NONE',  ( -1.000000000000000000, -1.224606353822377300E-016, 0.0000000000000000000 ) ) ;
#101 = DIRECTION ( 'NONE',  ( -1.224606353822377300E-016, 1.000000000000000000, 0.0000000000000000000 ) ) ;
#103 = EDGE_CURVE ( 'NONE', #193, #201, #253, .T. ) ;
#102 = DIRECTION ( 'NONE',  ( 1.000000000000000000, 0.0000000000000000000, 0.0000000000000000000 ) ) ;
#104 = PLANE ( 'NONE',  #226 ) ;
#105 = SURFACE_STYLE_FILL_AREA ( #98 ) ;
#106 = VECTOR ( 'NONE', #71, 1000.000000000000000 ) ;
#107 = AXIS2_PLACEMENT_3D ( 'NONE', #108, #113, #102 ) ;
#108 = CARTESIAN_POINT ( 'NONE',  ( 0.0000000000000000000, 0.0000000000000000000, 0.0000000000000000000 ) ) ;
#109 = PRESENTATION_STYLE_ASSIGNMENT (( #152 ) ) ;
#110 = LINE ( 'NONE', #93, #168 ) ;
#111 = VERTEX_POINT ( 'NONE', #62 ) ;
#112 = SURFACE_SIDE_STYLE ('',( #166 ) ) ;
#113 = DIRECTION ( 'NONE',  ( 0.0000000000000000000, 0.0000000000000000000, 1.000000000000000000 ) ) ;
#114 = CARTESIAN_POINT ( 'NONE',  ( 0.0000000000000000000, 20.00000000000000000, 0.0000000000000000000 ) ) ;
#115 = CARTESIAN_POINT ( 'NONE',  ( 0.0000000000000000000, 20.00000000000000000, 6.000000000000000000 ) ) ;
#116 = ORIENTED_EDGE ( 'NONE', *, *, #233, .T. ) ;
#117 = EDGE_CURVE ( 'NONE', #201, #218, #164, .T. ) ;
#118 = DIRECTION ( 'NONE',  ( 1.000000000000000000, 0.0000000000000000000, 0.0000000000000000000 ) ) ;
#119 = EDGE_LOOP ( 'NONE', ( #16, #175, #141, #153 ) ) ;
#120 = DIRECTION ( 'NONE',  ( 0.0000000000000000000, 0.0000000000000000000, 1.000000000000000000 ) ) ;
#121 = CARTESIAN_POINT ( 'NONE',  ( 6.999999999999999100, 10.00000000000000200, 0.0000000000000000000 ) ) ;
#122 = PRODUCT_DEFINITION ( 'UNKNOWN', '', #140, #76 ) ;
#123 = CARTESIAN_POINT ( 'NONE',  ( 14.00000000000000000, 19.99999999999999600, 6.000000000000000000 ) ) ;
#124 = VERTEX_POINT ( 'NONE', #51 ) ;
#125 = ORIENTED_EDGE ( 'NONE', *, *, #197, .T. ) ;
#126 = DIRECTION ( 'NONE',  ( -0.0000000000000000000, -0.0000000000000000000, -1.000000000000000000 ) ) ;
#127 =( NAMED_UNIT ( * ) SI_UNIT ( $, .STERADIAN. ) SOLID_ANGLE_UNIT ( ) );
#128 = CARTESIAN_POINT ( 'NONE',  ( 0.0000000000000000000, 0.0000000000000000000, 6.000000000000000000 ) ) ;
#129 = AXIS2_PLACEMENT_3D ( 'NONE', #99, #97, #95 ) ;
#130 = VERTEX_POINT ( 'NONE', #44 ) ;
#131 = ORIENTED_EDGE ( 'NONE', *, *, #233, .F. ) ;
#132 = VECTOR ( 'NONE', #46, 1000.000000000000000 ) ;
#133 = ORIENTED_EDGE ( 'NONE', *, *, #47, .T. ) ;
#134 = CARTESIAN_POINT ( 'NONE',  ( 0.0000000000000000000, 0.0000000000000000000, 0.0000000000000000000 ) ) ;
#135 = EDGE_CURVE ( 'NONE', #218, #30, #155, .T. ) ;
#136 = CIRCLE ( 'NONE', #169, 3.300000000000000700 ) ;
#137 =( NAMED_UNIT ( * ) PLANE_ANGLE_UNIT ( ) SI_UNIT ( $, .RADIAN. ) );
#138 = ADVANCED_FACE ( 'NONE', ( #24 ), #40, .F. ) ;
#139 =( LENGTH_UNIT ( ) NAMED_UNIT ( * ) SI_UNIT ( .MILLI., .METRE. ) );
#140 = PRODUCT_DEFINITION_FORMATION_WITH_SPECIFIED_SOURCE ( 'ANY', '', #183, .NOT_KNOWN. ) ;
#141 = ORIENTED_EDGE ( 'NONE', *, *, #135, .F. ) ;
#142 = DIRECTION ( 'NONE',  ( 0.0000000000000000000, 0.0000000000000000000, 1.000000000000000000 ) ) ;
#143 = DIRECTION ( 'NONE',  ( 0.0000000000000000000, 0.0000000000000000000, -1.000000000000000000 ) ) ;
#144 = FACE_BOUND ( 'NONE', #225, .T. ) ;
#145 = PLANE ( 'NONE',  #195 ) ;
#146 = AXIS2_PLACEMENT_3D ( 'NONE', #8, #14, #185 ) ;
#147 = FILL_AREA_STYLE_COLOUR ( '', #252 ) ;
#148 = DIRECTION ( 'NONE',  ( -1.000000000000000000, 0.0000000000000000000, -0.0000000000000000000 ) ) ;
#149 = ORIENTED_EDGE ( 'NONE', *, *, #151, .T. ) ;
#150 = ORIENTED_EDGE ( 'NONE', *, *, #63, .F. ) ;
#151 = EDGE_CURVE ( 'NONE', #56, #130, #31, .T. ) ;
#152 = SURFACE_STYLE_USAGE ( .BOTH. , #112 ) ;
#153 = ORIENTED_EDGE ( 'NONE', *, *, #28, .T. ) ;
#154 = PRODUCT_RELATED_PRODUCT_CATEGORY ( 'part', '', ( #183 ) ) ;
#155 = LINE ( 'NONE', #41, #39 ) ;
#156 = CARTESIAN_POINT ( 'NONE',  ( 0.0000000000000000000, 0.0000000000000000000, 0.0000000000000000000 ) ) ;
#157 = UNCERTAINTY_MEASURE_WITH_UNIT (LENGTH_MEASURE( 1.000000000000000100E-005 ), #139, 'distance_accuracy_value', 'NONE');
#158 = AXIS2_PLACEMENT_3D ( 'NONE', #36, #23, #22 ) ;
#159 = CARTESIAN_POINT ( 'NONE',  ( 3.699999999999998000, 10.00000000000000200, 0.0000000000000000000 ) ) ;
#160 = ADVANCED_FACE ( 'NONE', ( #250 ), #87, .F. ) ;
#161 = EDGE_LOOP ( 'NONE', ( #133, #84, #81, #131 ) ) ;
#162 = SHAPE_DEFINITION_REPRESENTATION ( #220, #21 ) ;
#163 = EDGE_CURVE ( 'NONE', #124, #111, #96, .T. ) ;
#164 = LINE ( 'NONE', #68, #198 ) ;
#165 = EDGE_LOOP ( 'NONE', ( #125, #217, #2, #266 ) ) ;
#166 = SURFACE_STYLE_FILL_AREA ( #177 ) ;
#167 = CIRCLE ( 'NONE', #182, 3.300000000000000700 ) ;
#168 = VECTOR ( 'NONE', #20, 1000.000000000000000 ) ;
#169 = AXIS2_PLACEMENT_3D ( 'NONE', #276, #1, #54 ) ;
#170 = CLOSED_SHELL ( 'NONE', ( #160, #7, #206, #247, #34, #58, #138, #223 ) ) ;
#171 = ORIENTED_EDGE ( 'NONE', *, *, #219, .F. ) ;
#172 = ORIENTED_EDGE ( 'NONE', *, *, #257, .F. ) ;
#173 = PLANE ( 'NONE',  #200 ) ;
#174 = DIRECTION ( 'NONE',  ( -1.000000000000000000, 0.0000000000000000000, 0.0000000000000000000 ) ) ;
#175 = ORIENTED_EDGE ( 'NONE', *, *, #249, .F. ) ;
#176 = CARTESIAN_POINT ( 'NONE',  ( 14.00000000000000000, 1.714448895351328200E-015, 6.000000000000000000 ) ) ;
#177 = FILL_AREA_STYLE ('',( #204 ) ) ;
#178 = ORIENTED_EDGE ( 'NONE', *, *, #103, .F. ) ;
#179 = ORIENTED_EDGE ( 'NONE', *, *, #188, .F. ) ;
#180 = ORIENTED_EDGE ( 'NONE', *, *, #151, .F. ) ;
#181 = VERTEX_POINT ( 'NONE', #5 ) ;
#182 = AXIS2_PLACEMENT_3D ( 'NONE', #121, #120, #118 ) ;
#183 = PRODUCT ( '096p0201406m8', '096p0201406m8', '', ( #243 ) ) ;
#184 = LINE ( 'NONE', #248, #245 ) ;
#185 = DIRECTION ( 'NONE',  ( 1.000000000000000000, 0.0000000000000000000, 0.0000000000000000000 ) ) ;
#186 = VECTOR ( 'NONE', #32, 1000.000000000000000 ) ;
#187 = ORIENTED_EDGE ( 'NONE', *, *, #208, .F. ) ;
#188 = EDGE_CURVE ( 'NONE', #262, #124, #236, .T. ) ;
#189 = ORIENTED_EDGE ( 'NONE', *, *, #208, .T. ) ;
#190 = VECTOR ( 'NONE', #86, 1000.000000000000000 ) ;
#191 = AXIS2_PLACEMENT_3D ( 'NONE', #19, #17, #26 ) ;
#192 = APPLICATION_CONTEXT ( 'automotive_design' ) ;
#193 = VERTEX_POINT ( 'NONE', #25 ) ;
#194 = ORIENTED_EDGE ( 'NONE', *, *, #135, .T. ) ;
#195 = AXIS2_PLACEMENT_3D ( 'NONE', #128, #143, #148 ) ;
#196 = VECTOR ( 'NONE', #83, 1000.000000000000000 ) ;
#197 = EDGE_CURVE ( 'NONE', #231, #262, #15, .T. ) ;
#198 = VECTOR ( 'NONE', #43, 1000.000000000000000 ) ;
#199 = ORIENTED_EDGE ( 'NONE', *, *, #103, .T. ) ;
#200 = AXIS2_PLACEMENT_3D ( 'NONE', #256, #269, #77 ) ;
#201 = VERTEX_POINT ( 'NONE', #176 ) ;
#202 = FACE_OUTER_BOUND ( 'NONE', #227, .T. ) ;
#203 = VECTOR ( 'NONE', #73, 1000.000000000000000 ) ;
#204 = FILL_AREA_STYLE_COLOUR ( '', #207 ) ;
#205 = CARTESIAN_POINT ( 'NONE',  ( 14.00000000000000000, 19.99999999999999600, 6.000000000000000000 ) ) ;
#206 = ADVANCED_FACE ( 'NONE', ( #3, #144 ), #173, .T. ) ;
#207 = COLOUR_RGB ( '',0.5294117647058823600, 0.5490196078431373000, 0.5490196078431373000 ) ;
#208 = EDGE_CURVE ( 'NONE', #193, #111, #184, .T. ) ;
#209 = CIRCLE ( 'NONE', #80, 3.300000000000000700 ) ;
#210 = FACE_OUTER_BOUND ( 'NONE', #165, .T. ) ;
#211 =( GEOMETRIC_REPRESENTATION_CONTEXT ( 3 ) GLOBAL_UNCERTAINTY_ASSIGNED_CONTEXT ( ( #94 ) ) GLOBAL_UNIT_ASSIGNED_CONTEXT ( ( #268, #255, #260 ) ) REPRESENTATION_CONTEXT ( 'NONE', 'WORKASPACE' ) );
#212 = CARTESIAN_POINT ( 'NONE',  ( 0.0000000000000000000, 0.0000000000000000000, 6.000000000000000000 ) ) ;
#213 = ORIENTED_EDGE ( 'NONE', *, *, #47, .F. ) ;
#214 = STYLED_ITEM ( 'NONE', ( #29 ), #42 ) ;
#215 = EDGE_LOOP ( 'NONE', ( #274, #187, #27, #74 ) ) ;
#216 = VECTOR ( 'NONE', #240, 1000.000000000000000 ) ;
#217 = ORIENTED_EDGE ( 'NONE', *, *, #28, .F. ) ;
#218 = VERTEX_POINT ( 'NONE', #205 ) ;
#219 = EDGE_CURVE ( 'NONE', #181, #264, #136, .T. ) ;
#220 = PRODUCT_DEFINITION_SHAPE ( 'NONE', 'NONE',  #122 ) ;
#221 = CARTESIAN_POINT ( 'NONE',  ( 14.00000000000000000, 1.714448895351328200E-015, 0.0000000000000000000 ) ) ;
#222 = CARTESIAN_POINT ( 'NONE',  ( 14.00000000000000000, 1.714448895351328200E-015, 6.000000000000000000 ) ) ;
#223 = ADVANCED_FACE ( 'NONE', ( #228 ), #6, .F. ) ;
#224 = LINE ( 'NONE', #55, #70 ) ;
#225 = EDGE_LOOP ( 'NONE', ( #61, #67 ) ) ;
#226 = AXIS2_PLACEMENT_3D ( 'NONE', #212, #101, #100 ) ;
#227 = EDGE_LOOP ( 'NONE', ( #49, #172, #178, #189 ) ) ;
#228 = FACE_OUTER_BOUND ( 'NONE', #9, .T. ) ;
#229 = FACE_OUTER_BOUND ( 'NONE', #275, .T. ) ;
#230 = LINE ( 'NONE', #35, #186 ) ;
#231 = VERTEX_POINT ( 'NONE', #221 ) ;
#232 = ORIENTED_EDGE ( 'NONE', *, *, #85, .T. ) ;
#233 = EDGE_CURVE ( 'NONE', #130, #264, #230, .T. ) ;
#234 = ORIENTED_EDGE ( 'NONE', *, *, #117, .T. ) ;
#235 = DIRECTION ( 'NONE',  ( -0.0000000000000000000, -0.0000000000000000000, -1.000000000000000000 ) ) ;
#236 = LINE ( 'NONE', #114, #190 ) ;
#237 = APPLICATION_CONTEXT ( 'automotive_design' ) ;
#238 = AXIS2_PLACEMENT_3D ( 'NONE', #239, #235, #174 ) ;
#239 = CARTESIAN_POINT ( 'NONE',  ( 6.999999999999999100, 10.00000000000000200, 6.000000000000000000 ) ) ;
#240 = DIRECTION ( 'NONE',  ( 1.000000000000000000, 1.224606353822377300E-016, 0.0000000000000000000 ) ) ;
#241 = UNCERTAINTY_MEASURE_WITH_UNIT (LENGTH_MEASURE( 1.000000000000000100E-005 ), #66, 'distance_accuracy_value', 'NONE');
#242 = PLANE ( 'NONE',  #251 ) ;
#243 = PRODUCT_CONTEXT ( 'NONE', #192, 'mechanical' ) ;
#244 = PRESENTATION_LAYER_ASSIGNMENT (  '', '', ( #214 ) ) ;
#245 = VECTOR ( 'NONE', #273, 1000.000000000000000 ) ;
#246 = APPLICATION_PROTOCOL_DEFINITION ( 'draft international standard', 'automotive_design', 1998, #192 ) ;
#247 = ADVANCED_FACE ( 'NONE', ( #82 ), #242, .F. ) ;
#248 = CARTESIAN_POINT ( 'NONE',  ( 0.0000000000000000000, 0.0000000000000000000, 6.000000000000000000 ) ) ;
#249 = EDGE_CURVE ( 'NONE', #30, #124, #224, .T. ) ;
#250 = FACE_OUTER_BOUND ( 'NONE', #161, .T. ) ;
#251 = AXIS2_PLACEMENT_3D ( 'NONE', #270, #261, #57 ) ;
#252 = COLOUR_RGB ( '',0.5294117647058823600, 0.5490196078431373000, 0.5490196078431373000 ) ;
#253 = LINE ( 'NONE', #79, #106 ) ;
#254 = MECHANICAL_DESIGN_GEOMETRIC_PRESENTATION_REPRESENTATION (  '', ( #214 ), #263 ) ;
#255 =( NAMED_UNIT ( * ) PLANE_ANGLE_UNIT ( ) SI_UNIT ( $, .RADIAN. ) );
#256 = CARTESIAN_POINT ( 'NONE',  ( 0.0000000000000000000, 0.0000000000000000000, 0.0000000000000000000 ) ) ;
#257 = EDGE_CURVE ( 'NONE', #201, #231, #272, .T. ) ;
#258 = LINE ( 'NONE', #123, #38 ) ;
#259 = LINE ( 'NONE', #69, #203 ) ;
#260 =( NAMED_UNIT ( * ) SI_UNIT ( $, .STERADIAN. ) SOLID_ANGLE_UNIT ( ) );
#261 = DIRECTION ( 'NONE',  ( 1.000000000000000000, 0.0000000000000000000, 0.0000000000000000000 ) ) ;
#262 = VERTEX_POINT ( 'NONE', #88 ) ;
#263 =( GEOMETRIC_REPRESENTATION_CONTEXT ( 3 ) GLOBAL_UNCERTAINTY_ASSIGNED_CONTEXT ( ( #241 ) ) GLOBAL_UNIT_ASSIGNED_CONTEXT ( ( #66, #65, #64 ) ) REPRESENTATION_CONTEXT ( 'NONE', 'WORKASPACE' ) );
#264 = VERTEX_POINT ( 'NONE', #159 ) ;
#265 = LINE ( 'NONE', #156, #216 ) ;
#266 = ORIENTED_EDGE ( 'NONE', *, *, #257, .T. ) ;
#267 = EDGE_CURVE ( 'NONE', #111, #231, #265, .T. ) ;
#268 =( LENGTH_UNIT ( ) NAMED_UNIT ( * ) SI_UNIT ( .MILLI., .METRE. ) );
#269 = DIRECTION ( 'NONE',  ( 0.0000000000000000000, 0.0000000000000000000, -1.000000000000000000 ) ) ;
#270 = CARTESIAN_POINT ( 'NONE',  ( 0.0000000000000000000, 0.0000000000000000000, 6.000000000000000000 ) ) ;
#271 = STYLED_ITEM ( 'NONE', ( #109 ), #21 ) ;
#272 = LINE ( 'NONE', #222, #132 ) ;
#273 = DIRECTION ( 'NONE',  ( -0.0000000000000000000, -0.0000000000000000000, -1.000000000000000000 ) ) ;
#274 = ORIENTED_EDGE ( 'NONE', *, *, #163, .T. ) ;
#275 = EDGE_LOOP ( 'NONE', ( #232, #199, #234, #194 ) ) ;
#276 = CARTESIAN_POINT ( 'NONE',  ( 6.999999999999999100, 10.00000000000000200, 0.0000000000000000000 ) ) ;
ENDSEC;
END-ISO-10303-21;
