ISO-10303-21;
HEADER;
FILE_DESCRIPTION (( 'STEP AP214' ),
    '1' );
FILE_NAME ('096p0201305m8.STEP',
    '2014-08-18T12:42:29',
    ( '' ),
    ( '' ),
    'SwSTEP 2.0',
    'SolidWorks 2014',
    '' );
FILE_SCHEMA (( 'AUTOMOTIVE_DESIGN' ));
ENDSEC;

DATA;
#1 = CARTESIAN_POINT ( 'NONE',  ( 3.199999999999997500, 10.00000000000000000, 5.000000000000000000 ) ) ;
#2 = DIRECTION ( 'NONE',  ( -1.000000000000000000, -1.224606353822377300E-016, 0.0000000000000000000 ) ) ;
#3 = DIRECTION ( 'NONE',  ( -1.224606353822377300E-016, 1.000000000000000000, 0.0000000000000000000 ) ) ;
#4 = ORIENTED_EDGE ( 'NONE', *, *, #227, .F. ) ;
#5 = PLANE ( 'NONE',  #159 ) ;
#6 = STYLED_ITEM ( 'NONE', ( #155 ), #230 ) ;
#7 = ORIENTED_EDGE ( 'NONE', *, *, #101, .F. ) ;
#8 = CARTESIAN_POINT ( 'NONE',  ( 0.0000000000000000000, 20.00000000000000000, 5.000000000000000000 ) ) ;
#9 = DIRECTION ( 'NONE',  ( -0.0000000000000000000, -0.0000000000000000000, -1.000000000000000000 ) ) ;
#10 = VERTEX_POINT ( 'NONE', #157 ) ;
#11 = VECTOR ( 'NONE', #106, 1000.000000000000000 ) ;
#12 = CARTESIAN_POINT ( 'NONE',  ( 13.00000000000000000, 19.99999999999999600, 5.000000000000000000 ) ) ;
#13 = CARTESIAN_POINT ( 'NONE',  ( 12.99999999999999800, 1.591988259969090000E-015, 0.0000000000000000000 ) ) ;
#14 = DIRECTION ( 'NONE',  ( -0.0000000000000000000, -0.0000000000000000000, -1.000000000000000000 ) ) ;
#15 = EDGE_CURVE ( 'NONE', #163, #222, #29, .T. ) ;
#16 = ORIENTED_EDGE ( 'NONE', *, *, #256, .F. ) ;
#17 = CARTESIAN_POINT ( 'NONE',  ( 0.0000000000000000000, 0.0000000000000000000, 5.000000000000000000 ) ) ;
#18 = PRESENTATION_STYLE_ASSIGNMENT (( #183 ) ) ;
#19 = DIRECTION ( 'NONE',  ( 1.000000000000000000, 1.224606353822377300E-016, 0.0000000000000000000 ) ) ;
#20 = VECTOR ( 'NONE', #148, 1000.000000000000000 ) ;
#21 = DIRECTION ( 'NONE',  ( 0.0000000000000000000, 0.0000000000000000000, 1.000000000000000000 ) ) ;
#22 = ORIENTED_EDGE ( 'NONE', *, *, #48, .F. ) ;
#23 = LINE ( 'NONE', #8, #113 ) ;
#24 = PRESENTATION_LAYER_ASSIGNMENT (  '', '', ( #6 ) ) ;
#25 = LINE ( 'NONE', #127, #55 ) ;
#26 = ORIENTED_EDGE ( 'NONE', *, *, #256, .T. ) ;
#27 = CLOSED_SHELL ( 'NONE', ( #63, #220, #247, #151, #34, #51, #266, #130 ) ) ;
#28 = EDGE_CURVE ( 'NONE', #245, #255, #128, .T. ) ;
#29 = LINE ( 'NONE', #12, #246 ) ;
#30 = LINE ( 'NONE', #171, #116 ) ;
#31 = SURFACE_STYLE_USAGE ( .BOTH. , #44 ) ;
#32 = UNCERTAINTY_MEASURE_WITH_UNIT (LENGTH_MEASURE( 1.000000000000000100E-005 ), #180, 'distance_accuracy_value', 'NONE');
#33 = ORIENTED_EDGE ( 'NONE', *, *, #111, .T. ) ;
#34 = ADVANCED_FACE ( 'NONE', ( #76 ), #5, .F. ) ;
#35 = LINE ( 'NONE', #211, #77 ) ;
#36 = MECHANICAL_DESIGN_GEOMETRIC_PRESENTATION_REPRESENTATION (  '', ( #6 ), #42 ) ;
#37 = EDGE_LOOP ( 'NONE', ( #33, #100, #146, #26 ) ) ;
#38 = SHAPE_DEFINITION_REPRESENTATION ( #267, #230 ) ;
#39 = DIRECTION ( 'NONE',  ( -0.0000000000000000000, -1.000000000000000000, -0.0000000000000000000 ) ) ;
#40 = EDGE_CURVE ( 'NONE', #255, #163, #233, .T. ) ;
#41 = CIRCLE ( 'NONE', #58, 3.300000000000000700 ) ;
#42 =( GEOMETRIC_REPRESENTATION_CONTEXT ( 3 ) GLOBAL_UNCERTAINTY_ASSIGNED_CONTEXT ( ( #271 ) ) GLOBAL_UNIT_ASSIGNED_CONTEXT ( ( #169, #165, #85 ) ) REPRESENTATION_CONTEXT ( 'NONE', 'WORKASPACE' ) );
#43 = EDGE_LOOP ( 'NONE', ( #259, #251, #209, #137 ) ) ;
#44 = SURFACE_SIDE_STYLE ('',( #161 ) ) ;
#45 = LINE ( 'NONE', #66, #208 ) ;
#46 = CARTESIAN_POINT ( 'NONE',  ( 6.499999999999999100, 10.00000000000000000, 0.0000000000000000000 ) ) ;
#47 = DIRECTION ( 'NONE',  ( 1.000000000000000000, 0.0000000000000000000, 0.0000000000000000000 ) ) ;
#48 = EDGE_CURVE ( 'NONE', #163, #10, #23, .T. ) ;
#49 = FILL_AREA_STYLE ('',( #52 ) ) ;
#50 = ORIENTED_EDGE ( 'NONE', *, *, #195, .F. ) ;
#51 = ADVANCED_FACE ( 'NONE', ( #64 ), #272, .F. ) ;
#52 = FILL_AREA_STYLE_COLOUR ( '', #224 ) ;
#53 = ORIENTED_EDGE ( 'NONE', *, *, #28, .T. ) ;
#54 = VERTEX_POINT ( 'NONE', #1 ) ;
#55 = VECTOR ( 'NONE', #170, 1000.000000000000000 ) ;
#56 = EDGE_LOOP ( 'NONE', ( #123, #16, #182, #225 ) ) ;
#57 = EDGE_CURVE ( 'NONE', #234, #54, #59, .T. ) ;
#58 = AXIS2_PLACEMENT_3D ( 'NONE', #214, #213, #212 ) ;
#59 = CIRCLE ( 'NONE', #172, 3.300000000000000700 ) ;
#60 = APPLICATION_CONTEXT ( 'automotive_design' ) ;
#61 = ORIENTED_EDGE ( 'NONE', *, *, #149, .T. ) ;
#62 = MANIFOLD_SOLID_BREP ( 'Basis-Linear austragen', #27 ) ;
#63 = ADVANCED_FACE ( 'NONE', ( #99 ), #93, .F. ) ;
#64 = FACE_OUTER_BOUND ( 'NONE', #37, .T. ) ;
#65 = APPLICATION_PROTOCOL_DEFINITION ( 'draft international standard', 'automotive_design', 1998, #68 ) ;
#66 = CARTESIAN_POINT ( 'NONE',  ( 0.0000000000000000000, 0.0000000000000000000, 0.0000000000000000000 ) ) ;
#67 = FACE_BOUND ( 'NONE', #94, .T. ) ;
#68 = APPLICATION_CONTEXT ( 'automotive_design' ) ;
#69 = UNCERTAINTY_MEASURE_WITH_UNIT (LENGTH_MEASURE( 1.000000000000000100E-005 ), #92, 'distance_accuracy_value', 'NONE');
#70 = PRODUCT_CONTEXT ( 'NONE', #60, 'mechanical' ) ;
#71 = APPLICATION_PROTOCOL_DEFINITION ( 'draft international standard', 'automotive_design', 1998, #60 ) ;
#72 = DIRECTION ( 'NONE',  ( 1.000000000000000000, 0.0000000000000000000, 0.0000000000000000000 ) ) ;
#73 = DIRECTION ( 'NONE',  ( 0.0000000000000000000, 0.0000000000000000000, 1.000000000000000000 ) ) ;
#74 = EDGE_CURVE ( 'NONE', #164, #110, #45, .T. ) ;
#75 = AXIS2_PLACEMENT_3D ( 'NONE', #46, #21, #47 ) ;
#76 = FACE_OUTER_BOUND ( 'NONE', #56, .T. ) ;
#77 = VECTOR ( 'NONE', #204, 1000.000000000000000 ) ;
#78 = EDGE_LOOP ( 'NONE', ( #81, #175, #154, #273 ) ) ;
#79 = VERTEX_POINT ( 'NONE', #84 ) ;
#80 = VERTEX_POINT ( 'NONE', #13 ) ;
#81 = ORIENTED_EDGE ( 'NONE', *, *, #74, .T. ) ;
#82 = LINE ( 'NONE', #243, #90 ) ;
#83 = AXIS2_PLACEMENT_3D ( 'NONE', #96, #73, #72 ) ;
#84 = CARTESIAN_POINT ( 'NONE',  ( 9.799999999999998900, 10.00000000000000000, 0.0000000000000000000 ) ) ;
#85 =( NAMED_UNIT ( * ) SI_UNIT ( $, .STERADIAN. ) SOLID_ANGLE_UNIT ( ) );
#86 =( NAMED_UNIT ( * ) SI_UNIT ( $, .STERADIAN. ) SOLID_ANGLE_UNIT ( ) );
#87 = EDGE_CURVE ( 'NONE', #79, #215, #145, .T. ) ;
#88 =( NAMED_UNIT ( * ) PLANE_ANGLE_UNIT ( ) SI_UNIT ( $, .RADIAN. ) );
#89 = AXIS2_PLACEMENT_3D ( 'NONE', #122, #228, #262 ) ;
#90 = VECTOR ( 'NONE', #244, 1000.000000000000000 ) ;
#91 = CARTESIAN_POINT ( 'NONE',  ( 0.0000000000000000000, 0.0000000000000000000, 0.0000000000000000000 ) ) ;
#92 =( LENGTH_UNIT ( ) NAMED_UNIT ( * ) SI_UNIT ( .MILLI., .METRE. ) );
#93 = CYLINDRICAL_SURFACE ( 'NONE', #89, 3.300000000000001200 ) ;
#94 = EDGE_LOOP ( 'NONE', ( #50, #217 ) ) ;
#95 = DIRECTION ( 'NONE',  ( -1.000000000000000000, 2.668805347656626700E-016, -0.0000000000000000000 ) ) ;
#96 = CARTESIAN_POINT ( 'NONE',  ( 0.0000000000000000000, 0.0000000000000000000, 0.0000000000000000000 ) ) ;
#97 = ORIENTED_EDGE ( 'NONE', *, *, #242, .F. ) ;
#98 = PRODUCT_DEFINITION ( 'UNKNOWN', '', #107, #190 ) ;
#99 = FACE_OUTER_BOUND ( 'NONE', #43, .T. ) ;
#100 = ORIENTED_EDGE ( 'NONE', *, *, #15, .F. ) ;
#101 = EDGE_CURVE ( 'NONE', #222, #164, #207, .T. ) ;
#102 = CARTESIAN_POINT ( 'NONE',  ( 0.0000000000000000000, 0.0000000000000000000, 5.000000000000000000 ) ) ;
#103 = CARTESIAN_POINT ( 'NONE',  ( 13.00000000000000000, 19.99999999999999600, 0.0000000000000000000 ) ) ;
#104 = DIRECTION ( 'NONE',  ( 1.000000000000000000, -2.668805347656626700E-016, 0.0000000000000000000 ) ) ;
#105 = DIRECTION ( 'NONE',  ( -2.668805347656626700E-016, -1.000000000000000000, 0.0000000000000000000 ) ) ;
#106 = DIRECTION ( 'NONE',  ( -0.0000000000000000000, -1.000000000000000000, -0.0000000000000000000 ) ) ;
#107 = PRODUCT_DEFINITION_FORMATION_WITH_SPECIFIED_SOURCE ( 'ANY', '', #240, .NOT_KNOWN. ) ;
#108 = FACE_OUTER_BOUND ( 'NONE', #126, .T. ) ;
#109 = ORIENTED_EDGE ( 'NONE', *, *, #111, .F. ) ;
#110 = VERTEX_POINT ( 'NONE', #124 ) ;
#111 = EDGE_CURVE ( 'NONE', #80, #222, #258, .T. ) ;
#112 = AXIS2_PLACEMENT_3D ( 'NONE', #264, #9, #250 ) ;
#113 = VECTOR ( 'NONE', #95, 1000.000000000000000 ) ;
#114 = ORIENTED_EDGE ( 'NONE', *, *, #162, .T. ) ;
#115 = ORIENTED_EDGE ( 'NONE', *, *, #101, .T. ) ;
#116 = VECTOR ( 'NONE', #203, 1000.000000000000000 ) ;
#117 = ORIENTED_EDGE ( 'NONE', *, *, #74, .F. ) ;
#118 = VECTOR ( 'NONE', #19, 1000.000000000000000 ) ;
#119 = CARTESIAN_POINT ( 'NONE',  ( 0.0000000000000000000, 20.00000000000000000, 5.000000000000000000 ) ) ;
#120 = VECTOR ( 'NONE', #198, 1000.000000000000000 ) ;
#121 = PRODUCT_RELATED_PRODUCT_CATEGORY ( 'part', '', ( #240 ) ) ;
#122 = CARTESIAN_POINT ( 'NONE',  ( 6.499999999999999100, 10.00000000000000000, 5.000000000000000000 ) ) ;
#123 = ORIENTED_EDGE ( 'NONE', *, *, #210, .T. ) ;
#124 = CARTESIAN_POINT ( 'NONE',  ( 0.0000000000000000000, 0.0000000000000000000, 0.0000000000000000000 ) ) ;
#125 = PLANE ( 'NONE',  #253 ) ;
#126 = EDGE_LOOP ( 'NONE', ( #115, #4, #22, #201 ) ) ;
#127 = CARTESIAN_POINT ( 'NONE',  ( 12.99999999999999800, 1.591988259969090000E-015, 5.000000000000000000 ) ) ;
#128 = LINE ( 'NONE', #17, #118 ) ;
#129 = AXIS2_PLACEMENT_3D ( 'NONE', #241, #238, #237 ) ;
#130 = ADVANCED_FACE ( 'NONE', ( #139 ), #254, .F. ) ;
#131 = DIRECTION ( 'NONE',  ( -1.000000000000000000, 0.0000000000000000000, -0.0000000000000000000 ) ) ;
#132 = FACE_OUTER_BOUND ( 'NONE', #78, .T. ) ;
#133 = DIRECTION ( 'NONE',  ( 0.0000000000000000000, 0.0000000000000000000, -1.000000000000000000 ) ) ;
#134 = PLANE ( 'NONE',  #219 ) ;
#135 = ORIENTED_EDGE ( 'NONE', *, *, #87, .F. ) ;
#136 = CARTESIAN_POINT ( 'NONE',  ( 12.99999999999999800, 1.591988259969090000E-015, 5.000000000000000000 ) ) ;
#137 = ORIENTED_EDGE ( 'NONE', *, *, #149, .F. ) ;
#138 = ORIENTED_EDGE ( 'NONE', *, *, #274, .T. ) ;
#139 = FACE_OUTER_BOUND ( 'NONE', #276, .T. ) ;
#140 = EDGE_LOOP ( 'NONE', ( #117, #7, #109, #187 ) ) ;
#141 = ORIENTED_EDGE ( 'NONE', *, *, #87, .T. ) ;
#142 = EDGE_LOOP ( 'NONE', ( #114, #141 ) ) ;
#143 = AXIS2_PLACEMENT_3D ( 'NONE', #194, #193, #192 ) ;
#144 = VECTOR ( 'NONE', #275, 1000.000000000000000 ) ;
#145 = CIRCLE ( 'NONE', #75, 3.300000000000000700 ) ;
#146 = ORIENTED_EDGE ( 'NONE', *, *, #40, .F. ) ;
#147 = CARTESIAN_POINT ( 'NONE',  ( 0.0000000000000000000, 0.0000000000000000000, 0.0000000000000000000 ) ) ;
#148 = DIRECTION ( 'NONE',  ( -0.0000000000000000000, -0.0000000000000000000, -1.000000000000000000 ) ) ;
#149 = EDGE_CURVE ( 'NONE', #54, #215, #82, .T. ) ;
#150 =( NAMED_UNIT ( * ) SI_UNIT ( $, .STERADIAN. ) SOLID_ANGLE_UNIT ( ) );
#151 = ADVANCED_FACE ( 'NONE', ( #132 ), #158, .F. ) ;
#152 =( NAMED_UNIT ( * ) PLANE_ANGLE_UNIT ( ) SI_UNIT ( $, .RADIAN. ) );
#153 = CARTESIAN_POINT ( 'NONE',  ( 0.0000000000000000000, 0.0000000000000000000, 5.000000000000000000 ) ) ;
#154 = ORIENTED_EDGE ( 'NONE', *, *, #274, .F. ) ;
#155 = PRESENTATION_STYLE_ASSIGNMENT (( #31 ) ) ;
#156 = CARTESIAN_POINT ( 'NONE',  ( 9.799999999999998900, 10.00000000000000000, 5.000000000000000000 ) ) ;
#157 = CARTESIAN_POINT ( 'NONE',  ( 0.0000000000000000000, 20.00000000000000000, 5.000000000000000000 ) ) ;
#158 = PLANE ( 'NONE',  #129 ) ;
#159 = AXIS2_PLACEMENT_3D ( 'NONE', #160, #3, #2 ) ;
#160 = CARTESIAN_POINT ( 'NONE',  ( 0.0000000000000000000, 0.0000000000000000000, 5.000000000000000000 ) ) ;
#161 = SURFACE_STYLE_FILL_AREA ( #49 ) ;
#162 = EDGE_CURVE ( 'NONE', #215, #79, #41, .T. ) ;
#163 = VERTEX_POINT ( 'NONE', #239 ) ;
#164 = VERTEX_POINT ( 'NONE', #216 ) ;
#165 =( NAMED_UNIT ( * ) PLANE_ANGLE_UNIT ( ) SI_UNIT ( $, .RADIAN. ) );
#166 = FACE_BOUND ( 'NONE', #142, .T. ) ;
#167 = CARTESIAN_POINT ( 'NONE',  ( 9.799999999999998900, 10.00000000000000000, 5.000000000000000000 ) ) ;
#168 = ORIENTED_EDGE ( 'NONE', *, *, #57, .T. ) ;
#169 =( LENGTH_UNIT ( ) NAMED_UNIT ( * ) SI_UNIT ( .MILLI., .METRE. ) );
#170 = DIRECTION ( 'NONE',  ( -0.0000000000000000000, -0.0000000000000000000, -1.000000000000000000 ) ) ;
#171 = CARTESIAN_POINT ( 'NONE',  ( 0.0000000000000000000, 20.00000000000000000, 5.000000000000000000 ) ) ;
#172 = AXIS2_PLACEMENT_3D ( 'NONE', #223, #205, #200 ) ;
#173 = DIRECTION ( 'NONE',  ( -1.000000000000000000, 0.0000000000000000000, -0.0000000000000000000 ) ) ;
#174 = SURFACE_STYLE_FILL_AREA ( #197 ) ;
#175 = ORIENTED_EDGE ( 'NONE', *, *, #181, .F. ) ;
#176 = DIRECTION ( 'NONE',  ( 0.0000000000000000000, 0.0000000000000000000, -1.000000000000000000 ) ) ;
#177 = LINE ( 'NONE', #156, #20 ) ;
#178 = CARTESIAN_POINT ( 'NONE',  ( 0.0000000000000000000, 0.0000000000000000000, 5.000000000000000000 ) ) ;
#179 = PLANE ( 'NONE',  #189 ) ;
#180 =( LENGTH_UNIT ( ) NAMED_UNIT ( * ) SI_UNIT ( .MILLI., .METRE. ) );
#181 = EDGE_CURVE ( 'NONE', #245, #110, #35, .T. ) ;
#182 = ORIENTED_EDGE ( 'NONE', *, *, #28, .F. ) ;
#183 = SURFACE_STYLE_USAGE ( .BOTH. , #196 ) ;
#184 = VECTOR ( 'NONE', #226, 1000.000000000000000 ) ;
#185 = FACE_OUTER_BOUND ( 'NONE', #257, .T. ) ;
#186 = ORIENTED_EDGE ( 'NONE', *, *, #48, .T. ) ;
#187 = ORIENTED_EDGE ( 'NONE', *, *, #210, .F. ) ;
#188 = AXIS2_PLACEMENT_3D ( 'NONE', #270, #269, #265 ) ;
#189 = AXIS2_PLACEMENT_3D ( 'NONE', #178, #176, #173 ) ;
#190 = PRODUCT_DEFINITION_CONTEXT ( 'detailed design', #68, 'design' ) ;
#191 = CIRCLE ( 'NONE', #143, 3.300000000000000700 ) ;
#192 = DIRECTION ( 'NONE',  ( 1.000000000000000000, 0.0000000000000000000, 0.0000000000000000000 ) ) ;
#193 = DIRECTION ( 'NONE',  ( 0.0000000000000000000, 0.0000000000000000000, 1.000000000000000000 ) ) ;
#194 = CARTESIAN_POINT ( 'NONE',  ( 6.499999999999999100, 10.00000000000000000, 5.000000000000000000 ) ) ;
#195 = EDGE_CURVE ( 'NONE', #54, #234, #191, .T. ) ;
#196 = SURFACE_SIDE_STYLE ('',( #174 ) ) ;
#197 = FILL_AREA_STYLE ('',( #261 ) ) ;
#198 = DIRECTION ( 'NONE',  ( 1.000000000000000000, 1.224606353822377300E-016, 0.0000000000000000000 ) ) ;
#199 = VECTOR ( 'NONE', #268, 1000.000000000000000 ) ;
#200 = DIRECTION ( 'NONE',  ( 1.000000000000000000, 0.0000000000000000000, 0.0000000000000000000 ) ) ;
#201 = ORIENTED_EDGE ( 'NONE', *, *, #15, .T. ) ;
#202 = CARTESIAN_POINT ( 'NONE',  ( 0.0000000000000000000, 20.00000000000000000, 0.0000000000000000000 ) ) ;
#203 = DIRECTION ( 'NONE',  ( -0.0000000000000000000, -0.0000000000000000000, -1.000000000000000000 ) ) ;
#204 = DIRECTION ( 'NONE',  ( -0.0000000000000000000, -0.0000000000000000000, -1.000000000000000000 ) ) ;
#205 = DIRECTION ( 'NONE',  ( 0.0000000000000000000, 0.0000000000000000000, 1.000000000000000000 ) ) ;
#206 = STYLED_ITEM ( 'NONE', ( #18 ), #62 ) ;
#207 = LINE ( 'NONE', #202, #144 ) ;
#208 = VECTOR ( 'NONE', #39, 1000.000000000000000 ) ;
#209 = ORIENTED_EDGE ( 'NONE', *, *, #162, .F. ) ;
#210 = EDGE_CURVE ( 'NONE', #110, #80, #248, .T. ) ;
#211 = CARTESIAN_POINT ( 'NONE',  ( 0.0000000000000000000, 0.0000000000000000000, 5.000000000000000000 ) ) ;
#212 = DIRECTION ( 'NONE',  ( 1.000000000000000000, 0.0000000000000000000, 0.0000000000000000000 ) ) ;
#213 = DIRECTION ( 'NONE',  ( 0.0000000000000000000, 0.0000000000000000000, 1.000000000000000000 ) ) ;
#214 = CARTESIAN_POINT ( 'NONE',  ( 6.499999999999999100, 10.00000000000000000, 0.0000000000000000000 ) ) ;
#215 = VERTEX_POINT ( 'NONE', #221 ) ;
#216 = CARTESIAN_POINT ( 'NONE',  ( 0.0000000000000000000, 20.00000000000000000, 0.0000000000000000000 ) ) ;
#217 = ORIENTED_EDGE ( 'NONE', *, *, #57, .F. ) ;
#218 = PRESENTATION_LAYER_ASSIGNMENT (  '', '', ( #206 ) ) ;
#219 = AXIS2_PLACEMENT_3D ( 'NONE', #147, #133, #131 ) ;
#220 = ADVANCED_FACE ( 'NONE', ( #185, #67 ), #179, .F. ) ;
#221 = CARTESIAN_POINT ( 'NONE',  ( 3.199999999999997500, 10.00000000000000000, 0.0000000000000000000 ) ) ;
#222 = VERTEX_POINT ( 'NONE', #103 ) ;
#223 = CARTESIAN_POINT ( 'NONE',  ( 6.499999999999999100, 10.00000000000000000, 5.000000000000000000 ) ) ;
#224 = COLOUR_RGB ( '',0.5294117647058823600, 0.5490196078431373000, 0.5490196078431373000 ) ;
#225 = ORIENTED_EDGE ( 'NONE', *, *, #181, .T. ) ;
#226 = DIRECTION ( 'NONE',  ( 8.673617379884036700E-017, 1.000000000000000000, 0.0000000000000000000 ) ) ;
#227 = EDGE_CURVE ( 'NONE', #10, #164, #30, .T. ) ;
#228 = DIRECTION ( 'NONE',  ( -0.0000000000000000000, -0.0000000000000000000, -1.000000000000000000 ) ) ;
#229 = COLOUR_RGB ( '',0.5294117647058823600, 0.5490196078431373000, 0.5490196078431373000 ) ;
#230 = ADVANCED_BREP_SHAPE_REPRESENTATION ( '096p0201305m8', ( #62, #83 ), #235 ) ;
#231 = LINE ( 'NONE', #102, #11 ) ;
#232 = MECHANICAL_DESIGN_GEOMETRIC_PRESENTATION_REPRESENTATION (  '', ( #206 ), #252 ) ;
#233 = LINE ( 'NONE', #260, #184 ) ;
#234 = VERTEX_POINT ( 'NONE', #167 ) ;
#235 =( GEOMETRIC_REPRESENTATION_CONTEXT ( 3 ) GLOBAL_UNCERTAINTY_ASSIGNED_CONTEXT ( ( #69 ) ) GLOBAL_UNIT_ASSIGNED_CONTEXT ( ( #92, #88, #86 ) ) REPRESENTATION_CONTEXT ( 'NONE', 'WORKASPACE' ) );
#236 = FACE_OUTER_BOUND ( 'NONE', #140, .T. ) ;
#237 = DIRECTION ( 'NONE',  ( 0.0000000000000000000, 0.0000000000000000000, -1.000000000000000000 ) ) ;
#238 = DIRECTION ( 'NONE',  ( 1.000000000000000000, 0.0000000000000000000, 0.0000000000000000000 ) ) ;
#239 = CARTESIAN_POINT ( 'NONE',  ( 13.00000000000000000, 19.99999999999999600, 5.000000000000000000 ) ) ;
#240 = PRODUCT ( '096p0201305m8', '096p0201305m8', '', ( #70 ) ) ;
#241 = CARTESIAN_POINT ( 'NONE',  ( 0.0000000000000000000, 0.0000000000000000000, 5.000000000000000000 ) ) ;
#242 = EDGE_CURVE ( 'NONE', #234, #79, #177, .T. ) ;
#243 = CARTESIAN_POINT ( 'NONE',  ( 3.199999999999997500, 10.00000000000000000, 5.000000000000000000 ) ) ;
#244 = DIRECTION ( 'NONE',  ( -0.0000000000000000000, -0.0000000000000000000, -1.000000000000000000 ) ) ;
#245 = VERTEX_POINT ( 'NONE', #153 ) ;
#246 = VECTOR ( 'NONE', #14, 1000.000000000000000 ) ;
#247 = ADVANCED_FACE ( 'NONE', ( #236, #166 ), #134, .T. ) ;
#248 = LINE ( 'NONE', #91, #120 ) ;
#249 = CARTESIAN_POINT ( 'NONE',  ( 12.99999999999999800, 1.591988259969090000E-015, 0.0000000000000000000 ) ) ;
#250 = DIRECTION ( 'NONE',  ( -1.000000000000000000, 0.0000000000000000000, 0.0000000000000000000 ) ) ;
#251 = ORIENTED_EDGE ( 'NONE', *, *, #242, .T. ) ;
#252 =( GEOMETRIC_REPRESENTATION_CONTEXT ( 3 ) GLOBAL_UNCERTAINTY_ASSIGNED_CONTEXT ( ( #32 ) ) GLOBAL_UNIT_ASSIGNED_CONTEXT ( ( #180, #152, #150 ) ) REPRESENTATION_CONTEXT ( 'NONE', 'WORKASPACE' ) );
#253 = AXIS2_PLACEMENT_3D ( 'NONE', #119, #105, #104 ) ;
#254 = CYLINDRICAL_SURFACE ( 'NONE', #112, 3.300000000000001200 ) ;
#255 = VERTEX_POINT ( 'NONE', #136 ) ;
#256 = EDGE_CURVE ( 'NONE', #255, #80, #25, .T. ) ;
#257 = EDGE_LOOP ( 'NONE', ( #138, #53, #263, #186 ) ) ;
#258 = LINE ( 'NONE', #249, #199 ) ;
#259 = ORIENTED_EDGE ( 'NONE', *, *, #195, .T. ) ;
#260 = CARTESIAN_POINT ( 'NONE',  ( 12.99999999999999800, 1.591988259969090000E-015, 5.000000000000000000 ) ) ;
#261 = FILL_AREA_STYLE_COLOUR ( '', #229 ) ;
#262 = DIRECTION ( 'NONE',  ( -1.000000000000000000, 0.0000000000000000000, 0.0000000000000000000 ) ) ;
#263 = ORIENTED_EDGE ( 'NONE', *, *, #40, .T. ) ;
#264 = CARTESIAN_POINT ( 'NONE',  ( 6.499999999999999100, 10.00000000000000000, 5.000000000000000000 ) ) ;
#265 = DIRECTION ( 'NONE',  ( -8.673617379884037900E-017, -1.000000000000000000, 0.0000000000000000000 ) ) ;
#266 = ADVANCED_FACE ( 'NONE', ( #108 ), #125, .F. ) ;
#267 = PRODUCT_DEFINITION_SHAPE ( 'NONE', 'NONE',  #98 ) ;
#268 = DIRECTION ( 'NONE',  ( 8.673617379884036700E-017, 1.000000000000000000, 0.0000000000000000000 ) ) ;
#269 = DIRECTION ( 'NONE',  ( -1.000000000000000000, 8.673617379884037900E-017, 0.0000000000000000000 ) ) ;
#270 = CARTESIAN_POINT ( 'NONE',  ( 12.99999999999999800, 1.591988259969090000E-015, 5.000000000000000000 ) ) ;
#271 = UNCERTAINTY_MEASURE_WITH_UNIT (LENGTH_MEASURE( 1.000000000000000100E-005 ), #169, 'distance_accuracy_value', 'NONE');
#272 = PLANE ( 'NONE',  #188 ) ;
#273 = ORIENTED_EDGE ( 'NONE', *, *, #227, .T. ) ;
#274 = EDGE_CURVE ( 'NONE', #10, #245, #231, .T. ) ;
#275 = DIRECTION ( 'NONE',  ( -1.000000000000000000, 2.668805347656626700E-016, -0.0000000000000000000 ) ) ;
#276 = EDGE_LOOP ( 'NONE', ( #97, #168, #61, #135 ) ) ;
ENDSEC;
END-ISO-10303-21;
