ISO-10303-21;
HEADER;
FILE_DESCRIPTION (( 'STEP AP214' ),
    '1' );
FILE_NAME ('096p0201305m6.STEP',
    '2014-08-18T12:41:26',
    ( '' ),
    ( '' ),
    'SwSTEP 2.0',
    'SolidWorks 2014',
    '' );
FILE_SCHEMA (( 'AUTOMOTIVE_DESIGN' ));
ENDSEC;

DATA;
#1 = CARTESIAN_POINT ( 'NONE',  ( 3.999999999999998200, 10.00000000000000000, 0.0000000000000000000 ) ) ;
#2 = VECTOR ( 'NONE', #270, 1000.000000000000000 ) ;
#3 = VECTOR ( 'NONE', #207, 1000.000000000000000 ) ;
#4 = DIRECTION ( 'NONE',  ( 1.000000000000000000, 0.0000000000000000000, 0.0000000000000000000 ) ) ;
#5 = DIRECTION ( 'NONE',  ( 1.000000000000000000, 1.224606353822377300E-016, 0.0000000000000000000 ) ) ;
#6 = DIRECTION ( 'NONE',  ( 0.0000000000000000000, 0.0000000000000000000, 1.000000000000000000 ) ) ;
#7 = CARTESIAN_POINT ( 'NONE',  ( 6.499999999999999100, 10.00000000000000000, 0.0000000000000000000 ) ) ;
#8 = EDGE_CURVE ( 'NONE', #143, #40, #58, .T. ) ;
#9 = DIRECTION ( 'NONE',  ( -1.000000000000000000, 0.0000000000000000000, 0.0000000000000000000 ) ) ;
#10 = CARTESIAN_POINT ( 'NONE',  ( 0.0000000000000000000, 0.0000000000000000000, 0.0000000000000000000 ) ) ;
#11 = PRESENTATION_STYLE_ASSIGNMENT (( #98 ) ) ;
#12 = ORIENTED_EDGE ( 'NONE', *, *, #8, .T. ) ;
#13 = CARTESIAN_POINT ( 'NONE',  ( 6.499999999999999100, 10.00000000000000000, 5.000000000000000000 ) ) ;
#14 = VECTOR ( 'NONE', #162, 1000.000000000000000 ) ;
#15 = DIRECTION ( 'NONE',  ( 1.000000000000000000, 0.0000000000000000000, 0.0000000000000000000 ) ) ;
#16 = FILL_AREA_STYLE ('',( #126 ) ) ;
#17 = DIRECTION ( 'NONE',  ( 0.0000000000000000000, 0.0000000000000000000, 1.000000000000000000 ) ) ;
#18 = CIRCLE ( 'NONE', #211, 2.500000000000000400 ) ;
#19 = PRODUCT_DEFINITION_CONTEXT ( 'detailed design', #95, 'design' ) ;
#20 = CARTESIAN_POINT ( 'NONE',  ( 6.499999999999999100, 10.00000000000000000, 5.000000000000000000 ) ) ;
#21 = DIRECTION ( 'NONE',  ( 0.0000000000000000000, 0.0000000000000000000, -1.000000000000000000 ) ) ;
#22 = DIRECTION ( 'NONE',  ( 1.000000000000000000, 0.0000000000000000000, 0.0000000000000000000 ) ) ;
#23 = ORIENTED_EDGE ( 'NONE', *, *, #31, .F. ) ;
#24 = LINE ( 'NONE', #122, #165 ) ;
#25 = CARTESIAN_POINT ( 'NONE',  ( 12.99999999999999800, 1.591988259969090000E-015, 5.000000000000000000 ) ) ;
#26 = FACE_BOUND ( 'NONE', #274, .T. ) ;
#27 = ADVANCED_FACE ( 'NONE', ( #90, #26 ), #174, .T. ) ;
#28 = DIRECTION ( 'NONE',  ( 0.0000000000000000000, 0.0000000000000000000, 1.000000000000000000 ) ) ;
#29 = DIRECTION ( 'NONE',  ( -0.0000000000000000000, -0.0000000000000000000, -1.000000000000000000 ) ) ;
#30 = CARTESIAN_POINT ( 'NONE',  ( 6.499999999999999100, 10.00000000000000000, 5.000000000000000000 ) ) ;
#31 = EDGE_CURVE ( 'NONE', #212, #255, #163, .T. ) ;
#32 = CARTESIAN_POINT ( 'NONE',  ( 0.0000000000000000000, 20.00000000000000000, 5.000000000000000000 ) ) ;
#33 = ORIENTED_EDGE ( 'NONE', *, *, #246, .F. ) ;
#34 = DIRECTION ( 'NONE',  ( 0.0000000000000000000, 0.0000000000000000000, -1.000000000000000000 ) ) ;
#35 = DIRECTION ( 'NONE',  ( 1.000000000000000000, 0.0000000000000000000, 0.0000000000000000000 ) ) ;
#36 = DIRECTION ( 'NONE',  ( 1.000000000000000000, 0.0000000000000000000, 0.0000000000000000000 ) ) ;
#37 = DIRECTION ( 'NONE',  ( 0.0000000000000000000, 0.0000000000000000000, 1.000000000000000000 ) ) ;
#38 = CARTESIAN_POINT ( 'NONE',  ( 6.499999999999999100, 10.00000000000000000, 0.0000000000000000000 ) ) ;
#39 = AXIS2_PLACEMENT_3D ( 'NONE', #13, #29, #9 ) ;
#40 = VERTEX_POINT ( 'NONE', #157 ) ;
#41 = VERTEX_POINT ( 'NONE', #172 ) ;
#42 = EDGE_CURVE ( 'NONE', #255, #45, #139, .T. ) ;
#43 = CARTESIAN_POINT ( 'NONE',  ( 0.0000000000000000000, 0.0000000000000000000, 5.000000000000000000 ) ) ;
#44 = ADVANCED_FACE ( 'NONE', ( #80 ), #145, .F. ) ;
#45 = VERTEX_POINT ( 'NONE', #154 ) ;
#46 = EDGE_LOOP ( 'NONE', ( #232, #106, #193, #129 ) ) ;
#47 = CARTESIAN_POINT ( 'NONE',  ( 9.000000000000000000, 10.00000000000000000, 5.000000000000000000 ) ) ;
#48 = VERTEX_POINT ( 'NONE', #130 ) ;
#49 = APPLICATION_CONTEXT ( 'automotive_design' ) ;
#50 = DIRECTION ( 'NONE',  ( -1.000000000000000000, 0.0000000000000000000, -0.0000000000000000000 ) ) ;
#51 = ORIENTED_EDGE ( 'NONE', *, *, #42, .F. ) ;
#52 = ORIENTED_EDGE ( 'NONE', *, *, #113, .F. ) ;
#53 = DIRECTION ( 'NONE',  ( -0.0000000000000000000, -1.000000000000000000, -0.0000000000000000000 ) ) ;
#54 = AXIS2_PLACEMENT_3D ( 'NONE', #264, #267, #275 ) ;
#55 = ORIENTED_EDGE ( 'NONE', *, *, #206, .F. ) ;
#56 = ORIENTED_EDGE ( 'NONE', *, *, #62, .T. ) ;
#57 = SURFACE_STYLE_FILL_AREA ( #16 ) ;
#58 = LINE ( 'NONE', #217, #3 ) ;
#59 = DIRECTION ( 'NONE',  ( 8.673617379884036700E-017, 1.000000000000000000, 0.0000000000000000000 ) ) ;
#60 = CARTESIAN_POINT ( 'NONE',  ( 12.99999999999999800, 1.591988259969090000E-015, 0.0000000000000000000 ) ) ;
#61 = PLANE ( 'NONE',  #253 ) ;
#62 = EDGE_CURVE ( 'NONE', #255, #41, #248, .T. ) ;
#63 = CARTESIAN_POINT ( 'NONE',  ( 0.0000000000000000000, 0.0000000000000000000, 5.000000000000000000 ) ) ;
#64 = ORIENTED_EDGE ( 'NONE', *, *, #42, .T. ) ;
#65 = PLANE ( 'NONE',  #245 ) ;
#66 = ORIENTED_EDGE ( 'NONE', *, *, #93, .T. ) ;
#67 = VECTOR ( 'NONE', #260, 1000.000000000000000 ) ;
#68 = FACE_OUTER_BOUND ( 'NONE', #184, .T. ) ;
#69 = DIRECTION ( 'NONE',  ( -8.673617379884037900E-017, -1.000000000000000000, 0.0000000000000000000 ) ) ;
#70 = DIRECTION ( 'NONE',  ( -1.000000000000000000, 8.673617379884037900E-017, 0.0000000000000000000 ) ) ;
#71 = VERTEX_POINT ( 'NONE', #84 ) ;
#72 = ORIENTED_EDGE ( 'NONE', *, *, #166, .T. ) ;
#73 = STYLED_ITEM ( 'NONE', ( #215 ), #235 ) ;
#74 = CARTESIAN_POINT ( 'NONE',  ( 12.99999999999999800, 1.591988259969090000E-015, 5.000000000000000000 ) ) ;
#75 = LINE ( 'NONE', #271, #2 ) ;
#76 = UNCERTAINTY_MEASURE_WITH_UNIT (LENGTH_MEASURE( 1.000000000000000100E-005 ), #97, 'distance_accuracy_value', 'NONE');
#77 = PLANE ( 'NONE',  #222 ) ;
#78 = DIRECTION ( 'NONE',  ( -0.0000000000000000000, -0.0000000000000000000, -1.000000000000000000 ) ) ;
#79 = EDGE_CURVE ( 'NONE', #41, #48, #24, .T. ) ;
#80 = FACE_OUTER_BOUND ( 'NONE', #127, .T. ) ;
#81 = DIRECTION ( 'NONE',  ( -0.0000000000000000000, -0.0000000000000000000, -1.000000000000000000 ) ) ;
#82 = FACE_OUTER_BOUND ( 'NONE', #137, .T. ) ;
#83 = EDGE_LOOP ( 'NONE', ( #236, #52 ) ) ;
#84 = CARTESIAN_POINT ( 'NONE',  ( 0.0000000000000000000, 0.0000000000000000000, 0.0000000000000000000 ) ) ;
#85 = CARTESIAN_POINT ( 'NONE',  ( 3.999999999999998200, 10.00000000000000000, 5.000000000000000000 ) ) ;
#86 = CARTESIAN_POINT ( 'NONE',  ( 9.000000000000000000, 10.00000000000000000, 0.0000000000000000000 ) ) ;
#87 = CARTESIAN_POINT ( 'NONE',  ( 3.999999999999998200, 10.00000000000000000, 5.000000000000000000 ) ) ;
#88 = ORIENTED_EDGE ( 'NONE', *, *, #268, .F. ) ;
#89 = PRESENTATION_LAYER_ASSIGNMENT (  '', '', ( #73 ) ) ;
#90 = FACE_OUTER_BOUND ( 'NONE', #192, .T. ) ;
#91 =( NAMED_UNIT ( * ) SI_UNIT ( $, .STERADIAN. ) SOLID_ANGLE_UNIT ( ) );
#92 = ORIENTED_EDGE ( 'NONE', *, *, #79, .F. ) ;
#93 = EDGE_CURVE ( 'NONE', #41, #143, #252, .T. ) ;
#94 = LINE ( 'NONE', #85, #121 ) ;
#95 = APPLICATION_CONTEXT ( 'automotive_design' ) ;
#96 =( NAMED_UNIT ( * ) PLANE_ANGLE_UNIT ( ) SI_UNIT ( $, .RADIAN. ) );
#97 =( LENGTH_UNIT ( ) NAMED_UNIT ( * ) SI_UNIT ( .MILLI., .METRE. ) );
#98 = SURFACE_STYLE_USAGE ( .BOTH. , #99 ) ;
#99 = SURFACE_SIDE_STYLE ('',( #136 ) ) ;
#100 = ORIENTED_EDGE ( 'NONE', *, *, #238, .F. ) ;
#101 = FILL_AREA_STYLE_COLOUR ( '', #229 ) ;
#102 = ADVANCED_FACE ( 'NONE', ( #111, #205 ), #65, .F. ) ;
#103 = FILL_AREA_STYLE ('',( #101 ) ) ;
#104 = MECHANICAL_DESIGN_GEOMETRIC_PRESENTATION_REPRESENTATION (  '', ( #73 ), #128 ) ;
#105 = ORIENTED_EDGE ( 'NONE', *, *, #216, .T. ) ;
#106 = ORIENTED_EDGE ( 'NONE', *, *, #246, .T. ) ;
#107 = VECTOR ( 'NONE', #159, 1000.000000000000000 ) ;
#108 = LINE ( 'NONE', #10, #144 ) ;
#109 = CARTESIAN_POINT ( 'NONE',  ( 0.0000000000000000000, 20.00000000000000000, 0.0000000000000000000 ) ) ;
#110 = DIRECTION ( 'NONE',  ( 1.000000000000000000, -2.668805347656626700E-016, 0.0000000000000000000 ) ) ;
#111 = FACE_OUTER_BOUND ( 'NONE', #181, .T. ) ;
#112 = DIRECTION ( 'NONE',  ( -2.668805347656626700E-016, -1.000000000000000000, 0.0000000000000000000 ) ) ;
#113 = EDGE_CURVE ( 'NONE', #119, #169, #237, .T. ) ;
#114 = DIRECTION ( 'NONE',  ( -1.000000000000000000, 2.668805347656626700E-016, -0.0000000000000000000 ) ) ;
#115 = CARTESIAN_POINT ( 'NONE',  ( 0.0000000000000000000, 20.00000000000000000, 5.000000000000000000 ) ) ;
#116 = APPLICATION_PROTOCOL_DEFINITION ( 'draft international standard', 'automotive_design', 1998, #49 ) ;
#117 = DIRECTION ( 'NONE',  ( -1.000000000000000000, 2.668805347656626700E-016, -0.0000000000000000000 ) ) ;
#118 = PLANE ( 'NONE',  #151 ) ;
#119 = VERTEX_POINT ( 'NONE', #47 ) ;
#120 = CARTESIAN_POINT ( 'NONE',  ( 0.0000000000000000000, 0.0000000000000000000, 0.0000000000000000000 ) ) ;
#121 = VECTOR ( 'NONE', #81, 1000.000000000000000 ) ;
#122 = CARTESIAN_POINT ( 'NONE',  ( 13.00000000000000000, 19.99999999999999600, 5.000000000000000000 ) ) ;
#123 = ORIENTED_EDGE ( 'NONE', *, *, #31, .T. ) ;
#124 = CARTESIAN_POINT ( 'NONE',  ( 12.99999999999999800, 1.591988259969090000E-015, 5.000000000000000000 ) ) ;
#125 = DIRECTION ( 'NONE',  ( 8.673617379884036700E-017, 1.000000000000000000, 0.0000000000000000000 ) ) ;
#126 = FILL_AREA_STYLE_COLOUR ( '', #186 ) ;
#127 = EDGE_LOOP ( 'NONE', ( #226, #51, #23, #262 ) ) ;
#128 =( GEOMETRIC_REPRESENTATION_CONTEXT ( 3 ) GLOBAL_UNCERTAINTY_ASSIGNED_CONTEXT ( ( #171 ) ) GLOBAL_UNIT_ASSIGNED_CONTEXT ( ( #218, #243, #241 ) ) REPRESENTATION_CONTEXT ( 'NONE', 'WORKASPACE' ) );
#129 = ORIENTED_EDGE ( 'NONE', *, *, #197, .F. ) ;
#130 = CARTESIAN_POINT ( 'NONE',  ( 13.00000000000000000, 19.99999999999999600, 0.0000000000000000000 ) ) ;
#131 =( NAMED_UNIT ( * ) SI_UNIT ( $, .STERADIAN. ) SOLID_ANGLE_UNIT ( ) );
#132 = CYLINDRICAL_SURFACE ( 'NONE', #54, 2.500000000000000400 ) ;
#133 = CARTESIAN_POINT ( 'NONE',  ( 0.0000000000000000000, 20.00000000000000000, 5.000000000000000000 ) ) ;
#134 = STYLED_ITEM ( 'NONE', ( #11 ), #156 ) ;
#135 = EDGE_CURVE ( 'NONE', #71, #45, #108, .T. ) ;
#136 = SURFACE_STYLE_FILL_AREA ( #103 ) ;
#137 = EDGE_LOOP ( 'NONE', ( #227, #224, #88, #12 ) ) ;
#138 = VECTOR ( 'NONE', #117, 1000.000000000000000 ) ;
#139 = LINE ( 'NONE', #161, #14 ) ;
#140 = DIRECTION ( 'NONE',  ( -1.000000000000000000, -1.224606353822377300E-016, 0.0000000000000000000 ) ) ;
#141 = FACE_OUTER_BOUND ( 'NONE', #182, .T. ) ;
#142 = DIRECTION ( 'NONE',  ( -1.224606353822377300E-016, 1.000000000000000000, 0.0000000000000000000 ) ) ;
#143 = VERTEX_POINT ( 'NONE', #32 ) ;
#144 = VECTOR ( 'NONE', #5, 1000.000000000000000 ) ;
#145 = PLANE ( 'NONE',  #223 ) ;
#146 = ORIENTED_EDGE ( 'NONE', *, *, #113, .T. ) ;
#147 = ORIENTED_EDGE ( 'NONE', *, *, #135, .F. ) ;
#148 = CARTESIAN_POINT ( 'NONE',  ( 0.0000000000000000000, 0.0000000000000000000, 5.000000000000000000 ) ) ;
#149 = CIRCLE ( 'NONE', #259, 2.500000000000000400 ) ;
#150 = ORIENTED_EDGE ( 'NONE', *, *, #79, .T. ) ;
#151 = AXIS2_PLACEMENT_3D ( 'NONE', #115, #112, #110 ) ;
#152 = EDGE_CURVE ( 'NONE', #40, #71, #178, .T. ) ;
#153 = ADVANCED_FACE ( 'NONE', ( #202 ), #118, .F. ) ;
#154 = CARTESIAN_POINT ( 'NONE',  ( 12.99999999999999800, 1.591988259969090000E-015, 0.0000000000000000000 ) ) ;
#155 = CIRCLE ( 'NONE', #244, 2.500000000000000400 ) ;
#156 = MANIFOLD_SOLID_BREP ( 'Basis-Linear austragen', #183 ) ;
#157 = CARTESIAN_POINT ( 'NONE',  ( 0.0000000000000000000, 20.00000000000000000, 0.0000000000000000000 ) ) ;
#158 = LINE ( 'NONE', #109, #214 ) ;
#159 = DIRECTION ( 'NONE',  ( 1.000000000000000000, 1.224606353822377300E-016, 0.0000000000000000000 ) ) ;
#160 = CARTESIAN_POINT ( 'NONE',  ( 0.0000000000000000000, 0.0000000000000000000, 5.000000000000000000 ) ) ;
#161 = CARTESIAN_POINT ( 'NONE',  ( 12.99999999999999800, 1.591988259969090000E-015, 5.000000000000000000 ) ) ;
#162 = DIRECTION ( 'NONE',  ( -0.0000000000000000000, -0.0000000000000000000, -1.000000000000000000 ) ) ;
#163 = LINE ( 'NONE', #160, #107 ) ;
#164 = PRESENTATION_LAYER_ASSIGNMENT (  '', '', ( #134 ) ) ;
#165 = VECTOR ( 'NONE', #78, 1000.000000000000000 ) ;
#166 = EDGE_CURVE ( 'NONE', #48, #40, #158, .T. ) ;
#167 = APPLICATION_PROTOCOL_DEFINITION ( 'draft international standard', 'automotive_design', 1998, #95 ) ;
#168 = DIRECTION ( 'NONE',  ( -1.000000000000000000, 0.0000000000000000000, -0.0000000000000000000 ) ) ;
#169 = VERTEX_POINT ( 'NONE', #87 ) ;
#170 = VERTEX_POINT ( 'NONE', #86 ) ;
#171 = UNCERTAINTY_MEASURE_WITH_UNIT (LENGTH_MEASURE( 1.000000000000000100E-005 ), #218, 'distance_accuracy_value', 'NONE');
#172 = CARTESIAN_POINT ( 'NONE',  ( 13.00000000000000000, 19.99999999999999600, 5.000000000000000000 ) ) ;
#173 = VECTOR ( 'NONE', #53, 1000.000000000000000 ) ;
#174 = PLANE ( 'NONE',  #204 ) ;
#175 = AXIS2_PLACEMENT_3D ( 'NONE', #221, #228, #210 ) ;
#176 = CARTESIAN_POINT ( 'NONE',  ( 0.0000000000000000000, 0.0000000000000000000, 0.0000000000000000000 ) ) ;
#177 = ORIENTED_EDGE ( 'NONE', *, *, #8, .F. ) ;
#178 = LINE ( 'NONE', #120, #173 ) ;
#179 = MECHANICAL_DESIGN_GEOMETRIC_PRESENTATION_REPRESENTATION (  '', ( #134 ), #190 ) ;
#180 = DIRECTION ( 'NONE',  ( 0.0000000000000000000, 0.0000000000000000000, -1.000000000000000000 ) ) ;
#181 = EDGE_LOOP ( 'NONE', ( #250, #123, #56, #66 ) ) ;
#182 = EDGE_LOOP ( 'NONE', ( #33, #146, #195, #100 ) ) ;
#183 = CLOSED_SHELL ( 'NONE', ( #240, #102, #27, #225, #44, #198, #153, #258 ) ) ;
#184 = EDGE_LOOP ( 'NONE', ( #191, #92, #213, #64 ) ) ;
#185 = PRODUCT_DEFINITION ( 'UNKNOWN', '', #199, #19 ) ;
#186 = COLOUR_RGB ( '',0.5294117647058823600, 0.5490196078431373000, 0.5490196078431373000 ) ;
#187 = SURFACE_SIDE_STYLE ('',( #57 ) ) ;
#188 =( NAMED_UNIT ( * ) PLANE_ANGLE_UNIT ( ) SI_UNIT ( $, .RADIAN. ) );
#189 =( LENGTH_UNIT ( ) NAMED_UNIT ( * ) SI_UNIT ( .MILLI., .METRE. ) );
#190 =( GEOMETRIC_REPRESENTATION_CONTEXT ( 3 ) GLOBAL_UNCERTAINTY_ASSIGNED_CONTEXT ( ( #76 ) ) GLOBAL_UNIT_ASSIGNED_CONTEXT ( ( #97, #96, #91 ) ) REPRESENTATION_CONTEXT ( 'NONE', 'WORKASPACE' ) );
#191 = ORIENTED_EDGE ( 'NONE', *, *, #206, .T. ) ;
#192 = EDGE_LOOP ( 'NONE', ( #231, #266, #55, #147 ) ) ;
#193 = ORIENTED_EDGE ( 'NONE', *, *, #216, .F. ) ;
#194 = CYLINDRICAL_SURFACE ( 'NONE', #39, 2.500000000000000400 ) ;
#195 = ORIENTED_EDGE ( 'NONE', *, *, #197, .T. ) ;
#196 = VECTOR ( 'NONE', #59, 1000.000000000000000 ) ;
#197 = EDGE_CURVE ( 'NONE', #169, #247, #94, .T. ) ;
#198 = ADVANCED_FACE ( 'NONE', ( #68 ), #77, .F. ) ;
#199 = PRODUCT_DEFINITION_FORMATION_WITH_SPECIFIED_SOURCE ( 'ANY', '', #201, .NOT_KNOWN. ) ;
#200 = LINE ( 'NONE', #269, #273 ) ;
#201 = PRODUCT ( '096p0201305m6', '096p0201305m6', '', ( #209 ) ) ;
#202 = FACE_OUTER_BOUND ( 'NONE', #261, .T. ) ;
#203 = LINE ( 'NONE', #60, #196 ) ;
#204 = AXIS2_PLACEMENT_3D ( 'NONE', #176, #180, #168 ) ;
#205 = FACE_BOUND ( 'NONE', #83, .T. ) ;
#206 = EDGE_CURVE ( 'NONE', #45, #48, #203, .T. ) ;
#207 = DIRECTION ( 'NONE',  ( -0.0000000000000000000, -0.0000000000000000000, -1.000000000000000000 ) ) ;
#208 = PRODUCT_RELATED_PRODUCT_CATEGORY ( 'part', '', ( #201 ) ) ;
#209 = PRODUCT_CONTEXT ( 'NONE', #49, 'mechanical' ) ;
#210 = DIRECTION ( 'NONE',  ( 1.000000000000000000, 0.0000000000000000000, 0.0000000000000000000 ) ) ;
#211 = AXIS2_PLACEMENT_3D ( 'NONE', #38, #37, #36 ) ;
#212 = VERTEX_POINT ( 'NONE', #63 ) ;
#213 = ORIENTED_EDGE ( 'NONE', *, *, #62, .F. ) ;
#214 = VECTOR ( 'NONE', #114, 1000.000000000000000 ) ;
#215 = PRESENTATION_STYLE_ASSIGNMENT (( #219 ) ) ;
#216 = EDGE_CURVE ( 'NONE', #247, #170, #18, .T. ) ;
#217 = CARTESIAN_POINT ( 'NONE',  ( 0.0000000000000000000, 20.00000000000000000, 5.000000000000000000 ) ) ;
#218 =( LENGTH_UNIT ( ) NAMED_UNIT ( * ) SI_UNIT ( .MILLI., .METRE. ) );
#219 = SURFACE_STYLE_USAGE ( .BOTH. , #187 ) ;
#220 = VECTOR ( 'NONE', #125, 1000.000000000000000 ) ;
#221 = CARTESIAN_POINT ( 'NONE',  ( 0.0000000000000000000, 0.0000000000000000000, 0.0000000000000000000 ) ) ;
#222 = AXIS2_PLACEMENT_3D ( 'NONE', #74, #70, #69 ) ;
#223 = AXIS2_PLACEMENT_3D ( 'NONE', #148, #142, #140 ) ;
#224 = ORIENTED_EDGE ( 'NONE', *, *, #257, .F. ) ;
#225 = ADVANCED_FACE ( 'NONE', ( #82 ), #61, .F. ) ;
#226 = ORIENTED_EDGE ( 'NONE', *, *, #135, .T. ) ;
#227 = ORIENTED_EDGE ( 'NONE', *, *, #152, .T. ) ;
#228 = DIRECTION ( 'NONE',  ( 0.0000000000000000000, 0.0000000000000000000, 1.000000000000000000 ) ) ;
#229 = COLOUR_RGB ( '',0.5294117647058823600, 0.5490196078431373000, 0.5490196078431373000 ) ;
#230 = EDGE_CURVE ( 'NONE', #169, #119, #155, .T. ) ;
#231 = ORIENTED_EDGE ( 'NONE', *, *, #152, .F. ) ;
#232 = ORIENTED_EDGE ( 'NONE', *, *, #230, .T. ) ;
#233 = AXIS2_PLACEMENT_3D ( 'NONE', #30, #28, #22 ) ;
#234 = LINE ( 'NONE', #256, #67 ) ;
#235 = ADVANCED_BREP_SHAPE_REPRESENTATION ( '096p0201305m6', ( #156, #175 ), #276 ) ;
#236 = ORIENTED_EDGE ( 'NONE', *, *, #230, .F. ) ;
#237 = CIRCLE ( 'NONE', #233, 2.500000000000000400 ) ;
#238 = EDGE_CURVE ( 'NONE', #170, #247, #149, .T. ) ;
#239 = ORIENTED_EDGE ( 'NONE', *, *, #238, .T. ) ;
#240 = ADVANCED_FACE ( 'NONE', ( #242 ), #194, .F. ) ;
#241 =( NAMED_UNIT ( * ) SI_UNIT ( $, .STERADIAN. ) SOLID_ANGLE_UNIT ( ) );
#242 = FACE_OUTER_BOUND ( 'NONE', #46, .T. ) ;
#243 =( NAMED_UNIT ( * ) PLANE_ANGLE_UNIT ( ) SI_UNIT ( $, .RADIAN. ) );
#244 = AXIS2_PLACEMENT_3D ( 'NONE', #20, #17, #15 ) ;
#245 = AXIS2_PLACEMENT_3D ( 'NONE', #249, #21, #50 ) ;
#246 = EDGE_CURVE ( 'NONE', #119, #170, #75, .T. ) ;
#247 = VERTEX_POINT ( 'NONE', #1 ) ;
#248 = LINE ( 'NONE', #124, #220 ) ;
#249 = CARTESIAN_POINT ( 'NONE',  ( 0.0000000000000000000, 0.0000000000000000000, 5.000000000000000000 ) ) ;
#250 = ORIENTED_EDGE ( 'NONE', *, *, #268, .T. ) ;
#251 = SHAPE_DEFINITION_REPRESENTATION ( #263, #235 ) ;
#252 = LINE ( 'NONE', #133, #138 ) ;
#253 = AXIS2_PLACEMENT_3D ( 'NONE', #43, #35, #34 ) ;
#254 = ORIENTED_EDGE ( 'NONE', *, *, #93, .F. ) ;
#255 = VERTEX_POINT ( 'NONE', #25 ) ;
#256 = CARTESIAN_POINT ( 'NONE',  ( 0.0000000000000000000, 0.0000000000000000000, 5.000000000000000000 ) ) ;
#257 = EDGE_CURVE ( 'NONE', #212, #71, #200, .T. ) ;
#258 = ADVANCED_FACE ( 'NONE', ( #141 ), #132, .F. ) ;
#259 = AXIS2_PLACEMENT_3D ( 'NONE', #7, #6, #4 ) ;
#260 = DIRECTION ( 'NONE',  ( -0.0000000000000000000, -1.000000000000000000, -0.0000000000000000000 ) ) ;
#261 = EDGE_LOOP ( 'NONE', ( #72, #177, #254, #150 ) ) ;
#262 = ORIENTED_EDGE ( 'NONE', *, *, #257, .T. ) ;
#263 = PRODUCT_DEFINITION_SHAPE ( 'NONE', 'NONE',  #185 ) ;
#264 = CARTESIAN_POINT ( 'NONE',  ( 6.499999999999999100, 10.00000000000000000, 5.000000000000000000 ) ) ;
#265 = DIRECTION ( 'NONE',  ( -0.0000000000000000000, -0.0000000000000000000, -1.000000000000000000 ) ) ;
#266 = ORIENTED_EDGE ( 'NONE', *, *, #166, .F. ) ;
#267 = DIRECTION ( 'NONE',  ( -0.0000000000000000000, -0.0000000000000000000, -1.000000000000000000 ) ) ;
#268 = EDGE_CURVE ( 'NONE', #143, #212, #234, .T. ) ;
#269 = CARTESIAN_POINT ( 'NONE',  ( 0.0000000000000000000, 0.0000000000000000000, 5.000000000000000000 ) ) ;
#270 = DIRECTION ( 'NONE',  ( -0.0000000000000000000, -0.0000000000000000000, -1.000000000000000000 ) ) ;
#271 = CARTESIAN_POINT ( 'NONE',  ( 9.000000000000000000, 10.00000000000000000, 5.000000000000000000 ) ) ;
#272 = UNCERTAINTY_MEASURE_WITH_UNIT (LENGTH_MEASURE( 1.000000000000000100E-005 ), #189, 'distance_accuracy_value', 'NONE');
#273 = VECTOR ( 'NONE', #265, 1000.000000000000000 ) ;
#274 = EDGE_LOOP ( 'NONE', ( #105, #239 ) ) ;
#275 = DIRECTION ( 'NONE',  ( -1.000000000000000000, 0.0000000000000000000, 0.0000000000000000000 ) ) ;
#276 =( GEOMETRIC_REPRESENTATION_CONTEXT ( 3 ) GLOBAL_UNCERTAINTY_ASSIGNED_CONTEXT ( ( #272 ) ) GLOBAL_UNIT_ASSIGNED_CONTEXT ( ( #189, #188, #131 ) ) REPRESENTATION_CONTEXT ( 'NONE', 'WORKASPACE' ) );
ENDSEC;
END-ISO-10303-21;
