ISO-10303-21;
HEADER;
FILE_DESCRIPTION (( 'STEP AP214' ),
    '1' );
FILE_NAME ('096p0191904m8.STEP',
    '2014-08-18T12:40:15',
    ( '' ),
    ( '' ),
    'SwSTEP 2.0',
    'SolidWorks 2014',
    '' );
FILE_SCHEMA (( 'AUTOMOTIVE_DESIGN' ));
ENDSEC;

DATA;
#1 = EDGE_LOOP ( 'NONE', ( #39, #34, #262, #90 ) ) ;
#2 = DIRECTION ( 'NONE',  ( 1.000000000000000000, 0.0000000000000000000, 0.0000000000000000000 ) ) ;
#3 = DIRECTION ( 'NONE',  ( 0.0000000000000000000, 0.0000000000000000000, 1.000000000000000000 ) ) ;
#4 = VERTEX_POINT ( 'NONE', #187 ) ;
#5 = FACE_OUTER_BOUND ( 'NONE', #145, .T. ) ;
#6 = VERTEX_POINT ( 'NONE', #177 ) ;
#7 = EDGE_CURVE ( 'NONE', #160, #6, #59, .T. ) ;
#8 = ADVANCED_FACE ( 'NONE', ( #57, #121 ), #192, .T. ) ;
#9 = FACE_OUTER_BOUND ( 'NONE', #211, .T. ) ;
#10 = PRESENTATION_LAYER_ASSIGNMENT (  '', '', ( #272 ) ) ;
#11 = ORIENTED_EDGE ( 'NONE', *, *, #41, .T. ) ;
#12 =( NAMED_UNIT ( * ) SI_UNIT ( $, .STERADIAN. ) SOLID_ANGLE_UNIT ( ) );
#13 = LINE ( 'NONE', #117, #208 ) ;
#14 = CLOSED_SHELL ( 'NONE', ( #266, #206, #8, #173, #104, #181, #73, #260 ) ) ;
#15 =( NAMED_UNIT ( * ) PLANE_ANGLE_UNIT ( ) SI_UNIT ( $, .RADIAN. ) );
#16 = ORIENTED_EDGE ( 'NONE', *, *, #254, .F. ) ;
#17 = CARTESIAN_POINT ( 'NONE',  ( 9.499999999999998200, 9.500000000000000000, 4.000000000000000000 ) ) ;
#18 =( LENGTH_UNIT ( ) NAMED_UNIT ( * ) SI_UNIT ( .MILLI., .METRE. ) );
#19 = EDGE_CURVE ( 'NONE', #4, #154, #184, .T. ) ;
#20 = LINE ( 'NONE', #178, #245 ) ;
#21 = MECHANICAL_DESIGN_GEOMETRIC_PRESENTATION_REPRESENTATION (  '', ( #272 ), #33 ) ;
#22 = DIRECTION ( 'NONE',  ( 0.0000000000000000000, 0.0000000000000000000, 1.000000000000000000 ) ) ;
#23 = ORIENTED_EDGE ( 'NONE', *, *, #270, .F. ) ;
#24 = SURFACE_STYLE_USAGE ( .BOTH. , #26 ) ;
#25 = VECTOR ( 'NONE', #191, 1000.000000000000000 ) ;
#26 = SURFACE_SIDE_STYLE ('',( #82 ) ) ;
#27 = VERTEX_POINT ( 'NONE', #47 ) ;
#28 = VECTOR ( 'NONE', #216, 1000.000000000000000 ) ;
#29 = DIRECTION ( 'NONE',  ( 1.000000000000000000, 0.0000000000000000000, 0.0000000000000000000 ) ) ;
#30 = FILL_AREA_STYLE ('',( #71 ) ) ;
#31 = EDGE_CURVE ( 'NONE', #154, #94, #276, .T. ) ;
#32 = PRODUCT ( '096p0191904m8', '096p0191904m8', '', ( #126 ) ) ;
#33 =( GEOMETRIC_REPRESENTATION_CONTEXT ( 3 ) GLOBAL_UNCERTAINTY_ASSIGNED_CONTEXT ( ( #210 ) ) GLOBAL_UNIT_ASSIGNED_CONTEXT ( ( #18, #15, #12 ) ) REPRESENTATION_CONTEXT ( 'NONE', 'WORKASPACE' ) );
#34 = ORIENTED_EDGE ( 'NONE', *, *, #102, .T. ) ;
#35 = VERTEX_POINT ( 'NONE', #53 ) ;
#36 = APPLICATION_PROTOCOL_DEFINITION ( 'draft international standard', 'automotive_design', 1998, #128 ) ;
#37 = MECHANICAL_DESIGN_GEOMETRIC_PRESENTATION_REPRESENTATION (  '', ( #144 ), #48 ) ;
#38 = PRODUCT_DEFINITION_CONTEXT ( 'detailed design', #92, 'design' ) ;
#39 = ORIENTED_EDGE ( 'NONE', *, *, #85, .T. ) ;
#40 =( NAMED_UNIT ( * ) SI_UNIT ( $, .STERADIAN. ) SOLID_ANGLE_UNIT ( ) );
#41 = EDGE_CURVE ( 'NONE', #4, #157, #259, .T. ) ;
#42 = ORIENTED_EDGE ( 'NONE', *, *, #232, .T. ) ;
#43 = VECTOR ( 'NONE', #120, 1000.000000000000000 ) ;
#44 = EDGE_LOOP ( 'NONE', ( #11, #201, #237, #230 ) ) ;
#45 = COLOUR_RGB ( '',0.6470588235294118000, 0.6196078431372549200, 0.5882352941176470800 ) ;
#46 =( NAMED_UNIT ( * ) PLANE_ANGLE_UNIT ( ) SI_UNIT ( $, .RADIAN. ) );
#47 = CARTESIAN_POINT ( 'NONE',  ( 0.0000000000000000000, 0.0000000000000000000, 0.0000000000000000000 ) ) ;
#48 =( GEOMETRIC_REPRESENTATION_CONTEXT ( 3 ) GLOBAL_UNCERTAINTY_ASSIGNED_CONTEXT ( ( #252 ) ) GLOBAL_UNIT_ASSIGNED_CONTEXT ( ( #246, #243, #241 ) ) REPRESENTATION_CONTEXT ( 'NONE', 'WORKASPACE' ) );
#49 = VECTOR ( 'NONE', #116, 1000.000000000000000 ) ;
#50 = DIRECTION ( 'NONE',  ( -0.0000000000000000000, -0.0000000000000000000, -1.000000000000000000 ) ) ;
#51 = ORIENTED_EDGE ( 'NONE', *, *, #7, .T. ) ;
#52 =( LENGTH_UNIT ( ) NAMED_UNIT ( * ) SI_UNIT ( .MILLI., .METRE. ) );
#53 = CARTESIAN_POINT ( 'NONE',  ( 19.00000000000000000, 2.326752072262516800E-015, 4.000000000000000000 ) ) ;
#54 = EDGE_LOOP ( 'NONE', ( #87, #275, #113, #136 ) ) ;
#55 = EDGE_CURVE ( 'NONE', #157, #94, #13, .T. ) ;
#56 = LINE ( 'NONE', #115, #43 ) ;
#57 = FACE_OUTER_BOUND ( 'NONE', #63, .T. ) ;
#58 = ORIENTED_EDGE ( 'NONE', *, *, #118, .T. ) ;
#59 = LINE ( 'NONE', #199, #28 ) ;
#60 = FACE_OUTER_BOUND ( 'NONE', #54, .T. ) ;
#61 = AXIS2_PLACEMENT_3D ( 'NONE', #67, #3, #161 ) ;
#62 = VERTEX_POINT ( 'NONE', #273 ) ;
#63 = EDGE_LOOP ( 'NONE', ( #163, #225, #23, #258 ) ) ;
#64 = AXIS2_PLACEMENT_3D ( 'NONE', #198, #195, #193 ) ;
#65 = VECTOR ( 'NONE', #231, 1000.000000000000000 ) ;
#66 = ORIENTED_EDGE ( 'NONE', *, *, #150, .T. ) ;
#67 = CARTESIAN_POINT ( 'NONE',  ( 0.0000000000000000000, 0.0000000000000000000, 0.0000000000000000000 ) ) ;
#68 = VERTEX_POINT ( 'NONE', #269 ) ;
#69 = CYLINDRICAL_SURFACE ( 'NONE', #257, 3.300000000000000700 ) ;
#70 = LINE ( 'NONE', #202, #25 ) ;
#71 = FILL_AREA_STYLE_COLOUR ( '', #263 ) ;
#72 = AXIS2_PLACEMENT_3D ( 'NONE', #88, #143, #29 ) ;
#73 = ADVANCED_FACE ( 'NONE', ( #5 ), #146, .F. ) ;
#74 = DIRECTION ( 'NONE',  ( 0.0000000000000000000, 1.000000000000000000, 0.0000000000000000000 ) ) ;
#75 = ORIENTED_EDGE ( 'NONE', *, *, #102, .F. ) ;
#76 = PRODUCT_DEFINITION ( 'UNKNOWN', '', #97, #38 ) ;
#77 = SHAPE_DEFINITION_REPRESENTATION ( #124, #138 ) ;
#78 = MANIFOLD_SOLID_BREP ( 'Basis-Linear austragen', #14 ) ;
#79 = APPLICATION_PROTOCOL_DEFINITION ( 'draft international standard', 'automotive_design', 1998, #92 ) ;
#80 = DIRECTION ( 'NONE',  ( -0.0000000000000000000, -0.0000000000000000000, -1.000000000000000000 ) ) ;
#81 = VERTEX_POINT ( 'NONE', #236 ) ;
#82 = SURFACE_STYLE_FILL_AREA ( #30 ) ;
#83 = LINE ( 'NONE', #101, #142 ) ;
#84 = CARTESIAN_POINT ( 'NONE',  ( 9.499999999999998200, 9.500000000000000000, 4.000000000000000000 ) ) ;
#85 = EDGE_CURVE ( 'NONE', #68, #196, #250, .T. ) ;
#86 = AXIS2_PLACEMENT_3D ( 'NONE', #224, #213, #209 ) ;
#87 = ORIENTED_EDGE ( 'NONE', *, *, #242, .T. ) ;
#88 = CARTESIAN_POINT ( 'NONE',  ( 9.499999999999998200, 9.500000000000000000, 0.0000000000000000000 ) ) ;
#89 = LINE ( 'NONE', #119, #49 ) ;
#90 = ORIENTED_EDGE ( 'NONE', *, *, #167, .T. ) ;
#91 = PRESENTATION_STYLE_ASSIGNMENT (( #24 ) ) ;
#92 = APPLICATION_CONTEXT ( 'automotive_design' ) ;
#93 = DIRECTION ( 'NONE',  ( -1.000000000000000000, 0.0000000000000000000, 0.0000000000000000000 ) ) ;
#94 = VERTEX_POINT ( 'NONE', #238 ) ;
#95 = AXIS2_PLACEMENT_3D ( 'NONE', #174, #172, #156 ) ;
#96 = LINE ( 'NONE', #107, #264 ) ;
#97 = PRODUCT_DEFINITION_FORMATION_WITH_SPECIFIED_SOURCE ( 'ANY', '', #32, .NOT_KNOWN. ) ;
#98 = ORIENTED_EDGE ( 'NONE', *, *, #254, .T. ) ;
#99 = DIRECTION ( 'NONE',  ( -0.0000000000000000000, -0.0000000000000000000, -1.000000000000000000 ) ) ;
#100 = PRESENTATION_STYLE_ASSIGNMENT (( #247 ) ) ;
#101 = CARTESIAN_POINT ( 'NONE',  ( 19.00000000000000000, 2.326752072262516800E-015, 0.0000000000000000000 ) ) ;
#102 = EDGE_CURVE ( 'NONE', #196, #35, #189, .T. ) ;
#103 = ORIENTED_EDGE ( 'NONE', *, *, #203, .T. ) ;
#104 = ADVANCED_FACE ( 'NONE', ( #255 ), #217, .F. ) ;
#105 = FACE_BOUND ( 'NONE', #109, .T. ) ;
#106 = DIRECTION ( 'NONE',  ( -0.0000000000000000000, -0.0000000000000000000, -1.000000000000000000 ) ) ;
#107 = CARTESIAN_POINT ( 'NONE',  ( 19.00000000000000000, 19.00000000000000000, 4.000000000000000000 ) ) ;
#108 = PLANE ( 'NONE',  #220 ) ;
#109 = EDGE_LOOP ( 'NONE', ( #207, #271 ) ) ;
#110 = VECTOR ( 'NONE', #123, 1000.000000000000000 ) ;
#111 = AXIS2_PLACEMENT_3D ( 'NONE', #17, #22, #2 ) ;
#112 = PRODUCT_RELATED_PRODUCT_CATEGORY ( 'part', '', ( #32 ) ) ;
#113 = ORIENTED_EDGE ( 'NONE', *, *, #85, .F. ) ;
#114 = CARTESIAN_POINT ( 'NONE',  ( 9.499999999999998200, 9.500000000000000000, 4.000000000000000000 ) ) ;
#115 = CARTESIAN_POINT ( 'NONE',  ( 0.0000000000000000000, 0.0000000000000000000, 0.0000000000000000000 ) ) ;
#116 = DIRECTION ( 'NONE',  ( 1.000000000000000000, 1.224606353822377300E-016, 0.0000000000000000000 ) ) ;
#117 = CARTESIAN_POINT ( 'NONE',  ( 12.79999999999999900, 9.500000000000000000, 4.000000000000000000 ) ) ;
#118 = EDGE_CURVE ( 'NONE', #94, #154, #204, .T. ) ;
#119 = CARTESIAN_POINT ( 'NONE',  ( 0.0000000000000000000, 0.0000000000000000000, 0.0000000000000000000 ) ) ;
#120 = DIRECTION ( 'NONE',  ( -0.0000000000000000000, -1.000000000000000000, -0.0000000000000000000 ) ) ;
#121 = FACE_BOUND ( 'NONE', #215, .T. ) ;
#122 = CARTESIAN_POINT ( 'NONE',  ( 19.00000000000000000, 2.326752072262516800E-015, 4.000000000000000000 ) ) ;
#123 = DIRECTION ( 'NONE',  ( -0.0000000000000000000, -0.0000000000000000000, -1.000000000000000000 ) ) ;
#124 = PRODUCT_DEFINITION_SHAPE ( 'NONE', 'NONE',  #76 ) ;
#125 = ORIENTED_EDGE ( 'NONE', *, *, #118, .F. ) ;
#126 = PRODUCT_CONTEXT ( 'NONE', #128, 'mechanical' ) ;
#127 = DIRECTION ( 'NONE',  ( -1.000000000000000000, 0.0000000000000000000, -0.0000000000000000000 ) ) ;
#128 = APPLICATION_CONTEXT ( 'automotive_design' ) ;
#129 = EDGE_LOOP ( 'NONE', ( #218, #16, #221, #235 ) ) ;
#130 = DIRECTION ( 'NONE',  ( 0.0000000000000000000, 0.0000000000000000000, -1.000000000000000000 ) ) ;
#131 = CYLINDRICAL_SURFACE ( 'NONE', #244, 3.300000000000000700 ) ;
#132 = EDGE_CURVE ( 'NONE', #35, #62, #194, .T. ) ;
#133 = AXIS2_PLACEMENT_3D ( 'NONE', #180, #165, #164 ) ;
#134 = VECTOR ( 'NONE', #222, 1000.000000000000000 ) ;
#135 = DIRECTION ( 'NONE',  ( 1.000000000000000000, 0.0000000000000000000, 0.0000000000000000000 ) ) ;
#136 = ORIENTED_EDGE ( 'NONE', *, *, #188, .T. ) ;
#137 = CARTESIAN_POINT ( 'NONE',  ( 6.199999999999997500, 9.500000000000000000, 4.000000000000000000 ) ) ;
#138 = ADVANCED_BREP_SHAPE_REPRESENTATION ( '096p0191904m8', ( #78, #61 ), #205 ) ;
#139 = DIRECTION ( 'NONE',  ( 0.0000000000000000000, 0.0000000000000000000, 1.000000000000000000 ) ) ;
#140 = CARTESIAN_POINT ( 'NONE',  ( 9.499999999999998200, 9.500000000000000000, 4.000000000000000000 ) ) ;
#141 = CARTESIAN_POINT ( 'NONE',  ( 0.0000000000000000000, 19.00000000000000000, 4.000000000000000000 ) ) ;
#142 = VECTOR ( 'NONE', #74, 1000.000000000000000 ) ;
#143 = DIRECTION ( 'NONE',  ( 0.0000000000000000000, 0.0000000000000000000, 1.000000000000000000 ) ) ;
#144 = STYLED_ITEM ( 'NONE', ( #100 ), #78 ) ;
#145 = EDGE_LOOP ( 'NONE', ( #51, #168, #268, #98 ) ) ;
#146 = PLANE ( 'NONE',  #162 ) ;
#147 = DIRECTION ( 'NONE',  ( -0.0000000000000000000, -0.0000000000000000000, -1.000000000000000000 ) ) ;
#148 = CARTESIAN_POINT ( 'NONE',  ( 0.0000000000000000000, 0.0000000000000000000, 4.000000000000000000 ) ) ;
#149 = EDGE_LOOP ( 'NONE', ( #42, #183, #75, #66 ) ) ;
#150 = EDGE_CURVE ( 'NONE', #196, #27, #70, .T. ) ;
#151 = CARTESIAN_POINT ( 'NONE',  ( 0.0000000000000000000, 19.00000000000000000, 4.000000000000000000 ) ) ;
#152 = AXIS2_PLACEMENT_3D ( 'NONE', #140, #139, #135 ) ;
#153 = DIRECTION ( 'NONE',  ( 0.0000000000000000000, 0.0000000000000000000, 1.000000000000000000 ) ) ;
#154 = VERTEX_POINT ( 'NONE', #190 ) ;
#155 = DIRECTION ( 'NONE',  ( -0.0000000000000000000, -0.0000000000000000000, -1.000000000000000000 ) ) ;
#156 = DIRECTION ( 'NONE',  ( -1.000000000000000000, 0.0000000000000000000, -0.0000000000000000000 ) ) ;
#157 = VERTEX_POINT ( 'NONE', #186 ) ;
#158 = PLANE ( 'NONE',  #169 ) ;
#159 = CARTESIAN_POINT ( 'NONE',  ( 19.00000000000000000, 2.326752072262516800E-015, 4.000000000000000000 ) ) ;
#160 = VERTEX_POINT ( 'NONE', #185 ) ;
#161 = DIRECTION ( 'NONE',  ( 1.000000000000000000, 0.0000000000000000000, 0.0000000000000000000 ) ) ;
#162 = AXIS2_PLACEMENT_3D ( 'NONE', #265, #261, #256 ) ;
#163 = ORIENTED_EDGE ( 'NONE', *, *, #242, .F. ) ;
#164 = DIRECTION ( 'NONE',  ( 0.0000000000000000000, 0.0000000000000000000, -1.000000000000000000 ) ) ;
#165 = DIRECTION ( 'NONE',  ( 1.000000000000000000, 0.0000000000000000000, 0.0000000000000000000 ) ) ;
#166 = PLANE ( 'NONE',  #133 ) ;
#167 = EDGE_CURVE ( 'NONE', #62, #68, #20, .T. ) ;
#168 = ORIENTED_EDGE ( 'NONE', *, *, #188, .F. ) ;
#169 = AXIS2_PLACEMENT_3D ( 'NONE', #159, #170, #153 ) ;
#170 = DIRECTION ( 'NONE',  ( -1.000000000000000000, 0.0000000000000000000, 0.0000000000000000000 ) ) ;
#171 = CIRCLE ( 'NONE', #152, 3.300000000000000700 ) ;
#172 = DIRECTION ( 'NONE',  ( 0.0000000000000000000, 0.0000000000000000000, -1.000000000000000000 ) ) ;
#173 = ADVANCED_FACE ( 'NONE', ( #60 ), #166, .F. ) ;
#174 = CARTESIAN_POINT ( 'NONE',  ( 0.0000000000000000000, 19.00000000000000000, 0.0000000000000000000 ) ) ;
#175 = ORIENTED_EDGE ( 'NONE', *, *, #19, .T. ) ;
#176 = DIRECTION ( 'NONE',  ( -1.000000000000000000, -0.0000000000000000000, -0.0000000000000000000 ) ) ;
#177 = CARTESIAN_POINT ( 'NONE',  ( 0.0000000000000000000, 19.00000000000000000, 0.0000000000000000000 ) ) ;
#178 = CARTESIAN_POINT ( 'NONE',  ( 0.0000000000000000000, 19.00000000000000000, 4.000000000000000000 ) ) ;
#179 = VECTOR ( 'NONE', #155, 1000.000000000000000 ) ;
#180 = CARTESIAN_POINT ( 'NONE',  ( 0.0000000000000000000, 0.0000000000000000000, 4.000000000000000000 ) ) ;
#181 = ADVANCED_FACE ( 'NONE', ( #234 ), #158, .F. ) ;
#182 = PRESENTATION_LAYER_ASSIGNMENT (  '', '', ( #144 ) ) ;
#183 = ORIENTED_EDGE ( 'NONE', *, *, #219, .F. ) ;
#184 = LINE ( 'NONE', #137, #240 ) ;
#185 = CARTESIAN_POINT ( 'NONE',  ( 19.00000000000000000, 19.00000000000000000, 0.0000000000000000000 ) ) ;
#186 = CARTESIAN_POINT ( 'NONE',  ( 12.79999999999999900, 9.500000000000000000, 4.000000000000000000 ) ) ;
#187 = CARTESIAN_POINT ( 'NONE',  ( 6.199999999999996600, 9.500000000000000000, 4.000000000000000000 ) ) ;
#188 = EDGE_CURVE ( 'NONE', #68, #6, #228, .T. ) ;
#189 = LINE ( 'NONE', #229, #134 ) ;
#190 = CARTESIAN_POINT ( 'NONE',  ( 6.199999999999996600, 9.500000000000000000, 0.0000000000000000000 ) ) ;
#191 = DIRECTION ( 'NONE',  ( -0.0000000000000000000, -0.0000000000000000000, -1.000000000000000000 ) ) ;
#192 = PLANE ( 'NONE',  #95 ) ;
#193 = DIRECTION ( 'NONE',  ( 1.000000000000000000, 0.0000000000000000000, 0.0000000000000000000 ) ) ;
#194 = LINE ( 'NONE', #200, #65 ) ;
#195 = DIRECTION ( 'NONE',  ( 0.0000000000000000000, 0.0000000000000000000, 1.000000000000000000 ) ) ;
#196 = VERTEX_POINT ( 'NONE', #148 ) ;
#197 = SURFACE_STYLE_FILL_AREA ( #249 ) ;
#198 = CARTESIAN_POINT ( 'NONE',  ( 9.499999999999998200, 9.500000000000000000, 0.0000000000000000000 ) ) ;
#199 = CARTESIAN_POINT ( 'NONE',  ( 0.0000000000000000000, 19.00000000000000000, 0.0000000000000000000 ) ) ;
#200 = CARTESIAN_POINT ( 'NONE',  ( 19.00000000000000000, 2.326752072262516800E-015, 4.000000000000000000 ) ) ;
#201 = ORIENTED_EDGE ( 'NONE', *, *, #55, .T. ) ;
#202 = CARTESIAN_POINT ( 'NONE',  ( 0.0000000000000000000, 0.0000000000000000000, 4.000000000000000000 ) ) ;
#203 = EDGE_CURVE ( 'NONE', #157, #4, #171, .T. ) ;
#204 = CIRCLE ( 'NONE', #64, 3.300000000000000700 ) ;
#205 =( GEOMETRIC_REPRESENTATION_CONTEXT ( 3 ) GLOBAL_UNCERTAINTY_ASSIGNED_CONTEXT ( ( #226 ) ) GLOBAL_UNIT_ASSIGNED_CONTEXT ( ( #52, #46, #40 ) ) REPRESENTATION_CONTEXT ( 'NONE', 'WORKASPACE' ) );
#206 = ADVANCED_FACE ( 'NONE', ( #274, #105 ), #108, .F. ) ;
#207 = ORIENTED_EDGE ( 'NONE', *, *, #41, .F. ) ;
#208 = VECTOR ( 'NONE', #50, 1000.000000000000000 ) ;
#209 = DIRECTION ( 'NONE',  ( -1.000000000000000000, -1.224606353822377300E-016, 0.0000000000000000000 ) ) ;
#210 = UNCERTAINTY_MEASURE_WITH_UNIT (LENGTH_MEASURE( 1.000000000000000100E-005 ), #18, 'distance_accuracy_value', 'NONE');
#211 = EDGE_LOOP ( 'NONE', ( #227, #103, #175, #125 ) ) ;
#212 = FACE_OUTER_BOUND ( 'NONE', #44, .T. ) ;
#213 = DIRECTION ( 'NONE',  ( -1.224606353822377300E-016, 1.000000000000000000, 0.0000000000000000000 ) ) ;
#214 = VECTOR ( 'NONE', #233, 1000.000000000000000 ) ;
#215 = EDGE_LOOP ( 'NONE', ( #239, #58 ) ) ;
#216 = DIRECTION ( 'NONE',  ( -1.000000000000000000, -0.0000000000000000000, -0.0000000000000000000 ) ) ;
#217 = PLANE ( 'NONE',  #86 ) ;
#218 = ORIENTED_EDGE ( 'NONE', *, *, #270, .T. ) ;
#219 = EDGE_CURVE ( 'NONE', #35, #81, #223, .T. ) ;
#220 = AXIS2_PLACEMENT_3D ( 'NONE', #141, #130, #127 ) ;
#221 = ORIENTED_EDGE ( 'NONE', *, *, #132, .F. ) ;
#222 = DIRECTION ( 'NONE',  ( 1.000000000000000000, 1.224606353822377300E-016, 0.0000000000000000000 ) ) ;
#223 = LINE ( 'NONE', #122, #110 ) ;
#224 = CARTESIAN_POINT ( 'NONE',  ( 0.0000000000000000000, 0.0000000000000000000, 4.000000000000000000 ) ) ;
#225 = ORIENTED_EDGE ( 'NONE', *, *, #7, .F. ) ;
#226 = UNCERTAINTY_MEASURE_WITH_UNIT (LENGTH_MEASURE( 1.000000000000000100E-005 ), #52, 'distance_accuracy_value', 'NONE');
#227 = ORIENTED_EDGE ( 'NONE', *, *, #55, .F. ) ;
#228 = LINE ( 'NONE', #151, #179 ) ;
#229 = CARTESIAN_POINT ( 'NONE',  ( 0.0000000000000000000, 0.0000000000000000000, 4.000000000000000000 ) ) ;
#230 = ORIENTED_EDGE ( 'NONE', *, *, #19, .F. ) ;
#231 = DIRECTION ( 'NONE',  ( 0.0000000000000000000, 1.000000000000000000, 0.0000000000000000000 ) ) ;
#232 = EDGE_CURVE ( 'NONE', #27, #81, #89, .T. ) ;
#233 = DIRECTION ( 'NONE',  ( -0.0000000000000000000, -1.000000000000000000, -0.0000000000000000000 ) ) ;
#234 = FACE_OUTER_BOUND ( 'NONE', #129, .T. ) ;
#235 = ORIENTED_EDGE ( 'NONE', *, *, #219, .T. ) ;
#236 = CARTESIAN_POINT ( 'NONE',  ( 19.00000000000000000, 2.326752072262516800E-015, 0.0000000000000000000 ) ) ;
#237 = ORIENTED_EDGE ( 'NONE', *, *, #31, .F. ) ;
#238 = CARTESIAN_POINT ( 'NONE',  ( 12.79999999999999900, 9.500000000000000000, 0.0000000000000000000 ) ) ;
#239 = ORIENTED_EDGE ( 'NONE', *, *, #31, .T. ) ;
#240 = VECTOR ( 'NONE', #147, 1000.000000000000000 ) ;
#241 =( NAMED_UNIT ( * ) SI_UNIT ( $, .STERADIAN. ) SOLID_ANGLE_UNIT ( ) );
#242 = EDGE_CURVE ( 'NONE', #6, #27, #56, .T. ) ;
#243 =( NAMED_UNIT ( * ) PLANE_ANGLE_UNIT ( ) SI_UNIT ( $, .RADIAN. ) );
#244 = AXIS2_PLACEMENT_3D ( 'NONE', #114, #99, #253 ) ;
#245 = VECTOR ( 'NONE', #176, 1000.000000000000000 ) ;
#246 =( LENGTH_UNIT ( ) NAMED_UNIT ( * ) SI_UNIT ( .MILLI., .METRE. ) );
#247 = SURFACE_STYLE_USAGE ( .BOTH. , #248 ) ;
#248 = SURFACE_SIDE_STYLE ('',( #197 ) ) ;
#249 = FILL_AREA_STYLE ('',( #267 ) ) ;
#250 = LINE ( 'NONE', #251, #214 ) ;
#251 = CARTESIAN_POINT ( 'NONE',  ( 0.0000000000000000000, 0.0000000000000000000, 4.000000000000000000 ) ) ;
#252 = UNCERTAINTY_MEASURE_WITH_UNIT (LENGTH_MEASURE( 1.000000000000000100E-005 ), #246, 'distance_accuracy_value', 'NONE');
#253 = DIRECTION ( 'NONE',  ( -1.000000000000000000, 0.0000000000000000000, 0.0000000000000000000 ) ) ;
#254 = EDGE_CURVE ( 'NONE', #62, #160, #96, .T. ) ;
#255 = FACE_OUTER_BOUND ( 'NONE', #149, .T. ) ;
#256 = DIRECTION ( 'NONE',  ( 0.0000000000000000000, -0.0000000000000000000, -1.000000000000000000 ) ) ;
#257 = AXIS2_PLACEMENT_3D ( 'NONE', #84, #80, #93 ) ;
#258 = ORIENTED_EDGE ( 'NONE', *, *, #232, .F. ) ;
#259 = CIRCLE ( 'NONE', #111, 3.300000000000000700 ) ;
#260 = ADVANCED_FACE ( 'NONE', ( #9 ), #131, .F. ) ;
#261 = DIRECTION ( 'NONE',  ( 0.0000000000000000000, -1.000000000000000000, 0.0000000000000000000 ) ) ;
#262 = ORIENTED_EDGE ( 'NONE', *, *, #132, .T. ) ;
#263 = COLOUR_RGB ( '',0.6470588235294118000, 0.6196078431372549200, 0.5882352941176470800 ) ;
#264 = VECTOR ( 'NONE', #106, 1000.000000000000000 ) ;
#265 = CARTESIAN_POINT ( 'NONE',  ( 0.0000000000000000000, 19.00000000000000000, 4.000000000000000000 ) ) ;
#266 = ADVANCED_FACE ( 'NONE', ( #212 ), #69, .F. ) ;
#267 = FILL_AREA_STYLE_COLOUR ( '', #45 ) ;
#268 = ORIENTED_EDGE ( 'NONE', *, *, #167, .F. ) ;
#269 = CARTESIAN_POINT ( 'NONE',  ( 0.0000000000000000000, 19.00000000000000000, 4.000000000000000000 ) ) ;
#270 = EDGE_CURVE ( 'NONE', #81, #160, #83, .T. ) ;
#271 = ORIENTED_EDGE ( 'NONE', *, *, #203, .F. ) ;
#272 = STYLED_ITEM ( 'NONE', ( #91 ), #138 ) ;
#273 = CARTESIAN_POINT ( 'NONE',  ( 19.00000000000000000, 19.00000000000000000, 4.000000000000000000 ) ) ;
#274 = FACE_OUTER_BOUND ( 'NONE', #1, .T. ) ;
#275 = ORIENTED_EDGE ( 'NONE', *, *, #150, .F. ) ;
#276 = CIRCLE ( 'NONE', #72, 3.300000000000000700 ) ;
ENDSEC;
END-ISO-10303-21;
