ISO-10303-21;
HEADER;
FILE_DESCRIPTION (( 'STEP AP214' ),
    '1' );
FILE_NAME ('096p0191904m6.STEP',
    '2014-08-18T12:39:12',
    ( '' ),
    ( '' ),
    'SwSTEP 2.0',
    'SolidWorks 2014',
    '' );
FILE_SCHEMA (( 'AUTOMOTIVE_DESIGN' ));
ENDSEC;

DATA;
#1 = PRODUCT_DEFINITION_CONTEXT ( 'detailed design', #98, 'design' ) ;
#2 = DIRECTION ( 'NONE',  ( -0.0000000000000000000, -0.0000000000000000000, -1.000000000000000000 ) ) ;
#3 = ORIENTED_EDGE ( 'NONE', *, *, #59, .F. ) ;
#4 = VERTEX_POINT ( 'NONE', #164 ) ;
#5 = AXIS2_PLACEMENT_3D ( 'NONE', #193, #191, #188 ) ;
#6 = VECTOR ( 'NONE', #71, 1000.000000000000000 ) ;
#7 = EDGE_CURVE ( 'NONE', #60, #225, #48, .T. ) ;
#8 = CARTESIAN_POINT ( 'NONE',  ( 19.00000000000000000, 2.326752072262516800E-015, 4.000000000000000000 ) ) ;
#9 = EDGE_LOOP ( 'NONE', ( #213, #162, #52, #243 ) ) ;
#10 = DIRECTION ( 'NONE',  ( -1.000000000000000000, 0.0000000000000000000, 0.0000000000000000000 ) ) ;
#11 = ORIENTED_EDGE ( 'NONE', *, *, #102, .T. ) ;
#12 = DIRECTION ( 'NONE',  ( 0.0000000000000000000, 0.0000000000000000000, 1.000000000000000000 ) ) ;
#13 = MANIFOLD_SOLID_BREP ( 'Basis-Linear austragen', #20 ) ;
#14 = VERTEX_POINT ( 'NONE', #106 ) ;
#15 = CARTESIAN_POINT ( 'NONE',  ( 6.999999999999997300, 9.500000000000000000, 0.0000000000000000000 ) ) ;
#16 = VECTOR ( 'NONE', #238, 1000.000000000000000 ) ;
#17 = ORIENTED_EDGE ( 'NONE', *, *, #7, .T. ) ;
#18 = AXIS2_PLACEMENT_3D ( 'NONE', #222, #218, #215 ) ;
#19 = EDGE_CURVE ( 'NONE', #4, #60, #223, .T. ) ;
#20 = CLOSED_SHELL ( 'NONE', ( #122, #38, #173, #56, #211, #145, #259, #241 ) ) ;
#21 = VECTOR ( 'NONE', #233, 1000.000000000000000 ) ;
#22 = EDGE_LOOP ( 'NONE', ( #85, #166, #116, #276 ) ) ;
#23 = CARTESIAN_POINT ( 'NONE',  ( 0.0000000000000000000, 19.00000000000000000, 4.000000000000000000 ) ) ;
#24 = FACE_OUTER_BOUND ( 'NONE', #78, .T. ) ;
#25 = VERTEX_POINT ( 'NONE', #167 ) ;
#26 = CYLINDRICAL_SURFACE ( 'NONE', #57, 2.500000000000000400 ) ;
#27 = DIRECTION ( 'NONE',  ( 1.000000000000000000, 0.0000000000000000000, 0.0000000000000000000 ) ) ;
#28 = ORIENTED_EDGE ( 'NONE', *, *, #137, .F. ) ;
#29 = LINE ( 'NONE', #257, #143 ) ;
#30 = FACE_OUTER_BOUND ( 'NONE', #22, .T. ) ;
#31 = CARTESIAN_POINT ( 'NONE',  ( 9.499999999999998200, 9.500000000000000000, 0.0000000000000000000 ) ) ;
#32 =( GEOMETRIC_REPRESENTATION_CONTEXT ( 3 ) GLOBAL_UNCERTAINTY_ASSIGNED_CONTEXT ( ( #192 ) ) GLOBAL_UNIT_ASSIGNED_CONTEXT ( ( #141, #139, #134 ) ) REPRESENTATION_CONTEXT ( 'NONE', 'WORKASPACE' ) );
#33 = EDGE_CURVE ( 'NONE', #177, #136, #235, .T. ) ;
#34 = CARTESIAN_POINT ( 'NONE',  ( 0.0000000000000000000, 0.0000000000000000000, 4.000000000000000000 ) ) ;
#35 = LINE ( 'NONE', #151, #258 ) ;
#36 = ORIENTED_EDGE ( 'NONE', *, *, #274, .F. ) ;
#37 = CARTESIAN_POINT ( 'NONE',  ( 9.499999999999998200, 9.500000000000000000, 4.000000000000000000 ) ) ;
#38 = ADVANCED_FACE ( 'NONE', ( #181, #109 ), #178, .F. ) ;
#39 = ADVANCED_BREP_SHAPE_REPRESENTATION ( '096p0191904m6', ( #13, #199 ), #32 ) ;
#40 = DIRECTION ( 'NONE',  ( 0.0000000000000000000, 0.0000000000000000000, -1.000000000000000000 ) ) ;
#41 = ORIENTED_EDGE ( 'NONE', *, *, #174, .F. ) ;
#42 = DIRECTION ( 'NONE',  ( 1.000000000000000000, 1.224606353822377300E-016, 0.0000000000000000000 ) ) ;
#43 = VERTEX_POINT ( 'NONE', #154 ) ;
#44 = EDGE_CURVE ( 'NONE', #136, #25, #90, .T. ) ;
#45 = VERTEX_POINT ( 'NONE', #140 ) ;
#46 = ORIENTED_EDGE ( 'NONE', *, *, #248, .F. ) ;
#47 = CARTESIAN_POINT ( 'NONE',  ( 9.499999999999998200, 9.500000000000000000, 4.000000000000000000 ) ) ;
#48 = LINE ( 'NONE', #244, #21 ) ;
#49 = EDGE_LOOP ( 'NONE', ( #179, #46, #41, #51 ) ) ;
#50 = CIRCLE ( 'NONE', #187, 2.500000000000000400 ) ;
#51 = ORIENTED_EDGE ( 'NONE', *, *, #221, .T. ) ;
#52 = ORIENTED_EDGE ( 'NONE', *, *, #174, .T. ) ;
#53 = DIRECTION ( 'NONE',  ( 1.000000000000000000, 0.0000000000000000000, 0.0000000000000000000 ) ) ;
#54 = ORIENTED_EDGE ( 'NONE', *, *, #248, .T. ) ;
#55 = FACE_OUTER_BOUND ( 'NONE', #152, .T. ) ;
#56 = ADVANCED_FACE ( 'NONE', ( #227 ), #81, .F. ) ;
#57 = AXIS2_PLACEMENT_3D ( 'NONE', #194, #200, #186 ) ;
#58 = CIRCLE ( 'NONE', #201, 2.500000000000000400 ) ;
#59 = EDGE_CURVE ( 'NONE', #177, #237, #58, .T. ) ;
#60 = VERTEX_POINT ( 'NONE', #65 ) ;
#61 = VECTOR ( 'NONE', #158, 1000.000000000000000 ) ;
#62 = ORIENTED_EDGE ( 'NONE', *, *, #121, .F. ) ;
#63 = DIRECTION ( 'NONE',  ( -0.0000000000000000000, -1.000000000000000000, -0.0000000000000000000 ) ) ;
#64 = ORIENTED_EDGE ( 'NONE', *, *, #262, .T. ) ;
#65 = CARTESIAN_POINT ( 'NONE',  ( 19.00000000000000000, 19.00000000000000000, 0.0000000000000000000 ) ) ;
#66 = VECTOR ( 'NONE', #42, 1000.000000000000000 ) ;
#67 = EDGE_LOOP ( 'NONE', ( #183, #108, #28, #220 ) ) ;
#68 = AXIS2_PLACEMENT_3D ( 'NONE', #168, #163, #161 ) ;
#69 = STYLED_ITEM ( 'NONE', ( #107 ), #13 ) ;
#70 = CARTESIAN_POINT ( 'NONE',  ( 11.99999999999999800, 9.500000000000000000, 4.000000000000000000 ) ) ;
#71 = DIRECTION ( 'NONE',  ( -0.0000000000000000000, -0.0000000000000000000, -1.000000000000000000 ) ) ;
#72 = ORIENTED_EDGE ( 'NONE', *, *, #189, .F. ) ;
#73 = CYLINDRICAL_SURFACE ( 'NONE', #232, 2.500000000000000400 ) ;
#74 = EDGE_LOOP ( 'NONE', ( #3, #204 ) ) ;
#75 = VECTOR ( 'NONE', #205, 1000.000000000000000 ) ;
#76 = DIRECTION ( 'NONE',  ( 1.000000000000000000, 0.0000000000000000000, 0.0000000000000000000 ) ) ;
#77 = UNCERTAINTY_MEASURE_WITH_UNIT (LENGTH_MEASURE( 1.000000000000000100E-005 ), #180, 'distance_accuracy_value', 'NONE');
#78 = EDGE_LOOP ( 'NONE', ( #230, #271, #184, #36 ) ) ;
#79 = LINE ( 'NONE', #240, #16 ) ;
#80 = LINE ( 'NONE', #182, #75 ) ;
#81 = PLANE ( 'NONE',  #172 ) ;
#82 = DIRECTION ( 'NONE',  ( 1.000000000000000000, 0.0000000000000000000, 0.0000000000000000000 ) ) ;
#83 = PRESENTATION_LAYER_ASSIGNMENT (  '', '', ( #69 ) ) ;
#84 = DIRECTION ( 'NONE',  ( 0.0000000000000000000, 0.0000000000000000000, 1.000000000000000000 ) ) ;
#85 = ORIENTED_EDGE ( 'NONE', *, *, #89, .F. ) ;
#86 = CARTESIAN_POINT ( 'NONE',  ( 9.499999999999998200, 9.500000000000000000, 0.0000000000000000000 ) ) ;
#87 = FACE_BOUND ( 'NONE', #169, .T. ) ;
#88 = CARTESIAN_POINT ( 'NONE',  ( 0.0000000000000000000, 19.00000000000000000, 4.000000000000000000 ) ) ;
#89 = EDGE_CURVE ( 'NONE', #237, #25, #103, .T. ) ;
#90 = CIRCLE ( 'NONE', #148, 2.500000000000000400 ) ;
#91 = ORIENTED_EDGE ( 'NONE', *, *, #89, .T. ) ;
#92 = VERTEX_POINT ( 'NONE', #23 ) ;
#93 = APPLICATION_PROTOCOL_DEFINITION ( 'draft international standard', 'automotive_design', 1998, #98 ) ;
#94 = STYLED_ITEM ( 'NONE', ( #99 ), #39 ) ;
#95 = VECTOR ( 'NONE', #157, 1000.000000000000000 ) ;
#96 = MECHANICAL_DESIGN_GEOMETRIC_PRESENTATION_REPRESENTATION (  '', ( #69 ), #112 ) ;
#97 = ORIENTED_EDGE ( 'NONE', *, *, #44, .T. ) ;
#98 = APPLICATION_CONTEXT ( 'automotive_design' ) ;
#99 = PRESENTATION_STYLE_ASSIGNMENT (( #119 ) ) ;
#100 = PRODUCT_CONTEXT ( 'NONE', #131, 'mechanical' ) ;
#101 = ORIENTED_EDGE ( 'NONE', *, *, #44, .F. ) ;
#102 = EDGE_CURVE ( 'NONE', #25, #136, #50, .T. ) ;
#103 = LINE ( 'NONE', #70, #6 ) ;
#104 = DIRECTION ( 'NONE',  ( 1.000000000000000000, 0.0000000000000000000, 0.0000000000000000000 ) ) ;
#105 = DIRECTION ( 'NONE',  ( 0.0000000000000000000, 0.0000000000000000000, 1.000000000000000000 ) ) ;
#106 = CARTESIAN_POINT ( 'NONE',  ( 0.0000000000000000000, 0.0000000000000000000, 4.000000000000000000 ) ) ;
#107 = PRESENTATION_STYLE_ASSIGNMENT (( #209 ) ) ;
#108 = ORIENTED_EDGE ( 'NONE', *, *, #221, .F. ) ;
#109 = FACE_BOUND ( 'NONE', #74, .T. ) ;
#110 = PRESENTATION_LAYER_ASSIGNMENT (  '', '', ( #94 ) ) ;
#111 =( NAMED_UNIT ( * ) SI_UNIT ( $, .STERADIAN. ) SOLID_ANGLE_UNIT ( ) );
#112 =( GEOMETRIC_REPRESENTATION_CONTEXT ( 3 ) GLOBAL_UNCERTAINTY_ASSIGNED_CONTEXT ( ( #77 ) ) GLOBAL_UNIT_ASSIGNED_CONTEXT ( ( #180, #185, #203 ) ) REPRESENTATION_CONTEXT ( 'NONE', 'WORKASPACE' ) );
#113 = ORIENTED_EDGE ( 'NONE', *, *, #208, .F. ) ;
#114 =( NAMED_UNIT ( * ) PLANE_ANGLE_UNIT ( ) SI_UNIT ( $, .RADIAN. ) );
#115 = SURFACE_STYLE_FILL_AREA ( #171 ) ;
#116 = ORIENTED_EDGE ( 'NONE', *, *, #33, .T. ) ;
#117 = CARTESIAN_POINT ( 'NONE',  ( 0.0000000000000000000, 0.0000000000000000000, 4.000000000000000000 ) ) ;
#118 =( LENGTH_UNIT ( ) NAMED_UNIT ( * ) SI_UNIT ( .MILLI., .METRE. ) );
#119 = SURFACE_STYLE_USAGE ( .BOTH. , #125 ) ;
#120 = EDGE_LOOP ( 'NONE', ( #159, #91, #101, #269 ) ) ;
#121 = EDGE_CURVE ( 'NONE', #92, #14, #214, .T. ) ;
#122 = ADVANCED_FACE ( 'NONE', ( #265 ), #73, .F. ) ;
#123 = SHAPE_DEFINITION_REPRESENTATION ( #170, #39 ) ;
#124 = DIRECTION ( 'NONE',  ( 0.0000000000000000000, 1.000000000000000000, 0.0000000000000000000 ) ) ;
#125 = SURFACE_SIDE_STYLE ('',( #153 ) ) ;
#126 = FILL_AREA_STYLE ('',( #146 ) ) ;
#127 = LINE ( 'NONE', #155, #61 ) ;
#128 = EDGE_LOOP ( 'NONE', ( #64, #133, #62, #264 ) ) ;
#129 = FACE_OUTER_BOUND ( 'NONE', #67, .T. ) ;
#130 = MECHANICAL_DESIGN_GEOMETRIC_PRESENTATION_REPRESENTATION (  '', ( #94 ), #147 ) ;
#131 = APPLICATION_CONTEXT ( 'automotive_design' ) ;
#132 = APPLICATION_PROTOCOL_DEFINITION ( 'draft international standard', 'automotive_design', 1998, #131 ) ;
#133 = ORIENTED_EDGE ( 'NONE', *, *, #156, .F. ) ;
#134 =( NAMED_UNIT ( * ) SI_UNIT ( $, .STERADIAN. ) SOLID_ANGLE_UNIT ( ) );
#135 = LINE ( 'NONE', #275, #66 ) ;
#136 = VERTEX_POINT ( 'NONE', #15 ) ;
#137 = EDGE_CURVE ( 'NONE', #14, #239, #135, .T. ) ;
#138 = VECTOR ( 'NONE', #212, 1000.000000000000000 ) ;
#139 =( NAMED_UNIT ( * ) PLANE_ANGLE_UNIT ( ) SI_UNIT ( $, .RADIAN. ) );
#140 = CARTESIAN_POINT ( 'NONE',  ( 19.00000000000000000, 19.00000000000000000, 4.000000000000000000 ) ) ;
#141 =( LENGTH_UNIT ( ) NAMED_UNIT ( * ) SI_UNIT ( .MILLI., .METRE. ) );
#142 = DIRECTION ( 'NONE',  ( -1.000000000000000000, 0.0000000000000000000, -0.0000000000000000000 ) ) ;
#143 = VECTOR ( 'NONE', #255, 1000.000000000000000 ) ;
#144 = DIRECTION ( 'NONE',  ( 0.0000000000000000000, 0.0000000000000000000, -1.000000000000000000 ) ) ;
#145 = ADVANCED_FACE ( 'NONE', ( #252 ), #195, .F. ) ;
#146 = FILL_AREA_STYLE_COLOUR ( '', #160 ) ;
#147 =( GEOMETRIC_REPRESENTATION_CONTEXT ( 3 ) GLOBAL_UNCERTAINTY_ASSIGNED_CONTEXT ( ( #270 ) ) GLOBAL_UNIT_ASSIGNED_CONTEXT ( ( #118, #114, #111 ) ) REPRESENTATION_CONTEXT ( 'NONE', 'WORKASPACE' ) );
#148 = AXIS2_PLACEMENT_3D ( 'NONE', #86, #84, #82 ) ;
#149 = CARTESIAN_POINT ( 'NONE',  ( 0.0000000000000000000, 0.0000000000000000000, 0.0000000000000000000 ) ) ;
#150 = DIRECTION ( 'NONE',  ( -0.0000000000000000000, -1.000000000000000000, -0.0000000000000000000 ) ) ;
#151 = CARTESIAN_POINT ( 'NONE',  ( 0.0000000000000000000, 0.0000000000000000000, 0.0000000000000000000 ) ) ;
#152 = EDGE_LOOP ( 'NONE', ( #17, #72, #113, #54 ) ) ;
#153 = SURFACE_STYLE_FILL_AREA ( #126 ) ;
#154 = CARTESIAN_POINT ( 'NONE',  ( 0.0000000000000000000, 0.0000000000000000000, 0.0000000000000000000 ) ) ;
#155 = CARTESIAN_POINT ( 'NONE',  ( 0.0000000000000000000, 0.0000000000000000000, 0.0000000000000000000 ) ) ;
#156 = EDGE_CURVE ( 'NONE', #14, #43, #29, .T. ) ;
#157 = DIRECTION ( 'NONE',  ( -0.0000000000000000000, -0.0000000000000000000, -1.000000000000000000 ) ) ;
#158 = DIRECTION ( 'NONE',  ( 1.000000000000000000, 1.224606353822377300E-016, 0.0000000000000000000 ) ) ;
#159 = ORIENTED_EDGE ( 'NONE', *, *, #59, .T. ) ;
#160 = COLOUR_RGB ( '',0.6470588235294118000, 0.6196078431372549200, 0.5882352941176470800 ) ;
#161 = DIRECTION ( 'NONE',  ( 0.0000000000000000000, -0.0000000000000000000, -1.000000000000000000 ) ) ;
#162 = ORIENTED_EDGE ( 'NONE', *, *, #137, .T. ) ;
#163 = DIRECTION ( 'NONE',  ( 0.0000000000000000000, -1.000000000000000000, 0.0000000000000000000 ) ) ;
#164 = CARTESIAN_POINT ( 'NONE',  ( 19.00000000000000000, 2.326752072262516800E-015, 0.0000000000000000000 ) ) ;
#165 = AXIS2_PLACEMENT_3D ( 'NONE', #88, #144, #142 ) ;
#166 = ORIENTED_EDGE ( 'NONE', *, *, #234, .T. ) ;
#167 = CARTESIAN_POINT ( 'NONE',  ( 11.99999999999999800, 9.500000000000000000, 0.0000000000000000000 ) ) ;
#168 = CARTESIAN_POINT ( 'NONE',  ( 0.0000000000000000000, 19.00000000000000000, 4.000000000000000000 ) ) ;
#169 = EDGE_LOOP ( 'NONE', ( #97, #11 ) ) ;
#170 = PRODUCT_DEFINITION_SHAPE ( 'NONE', 'NONE',  #217 ) ;
#171 = FILL_AREA_STYLE ('',( #267 ) ) ;
#172 = AXIS2_PLACEMENT_3D ( 'NONE', #117, #76, #40 ) ;
#173 = ADVANCED_FACE ( 'NONE', ( #24, #87 ), #261, .T. ) ;
#174 = EDGE_CURVE ( 'NONE', #239, #45, #79, .T. ) ;
#175 = PLANE ( 'NONE',  #68 ) ;
#176 = VECTOR ( 'NONE', #124, 1000.000000000000000 ) ;
#177 = VERTEX_POINT ( 'NONE', #249 ) ;
#178 = PLANE ( 'NONE',  #165 ) ;
#179 = ORIENTED_EDGE ( 'NONE', *, *, #19, .T. ) ;
#180 =( LENGTH_UNIT ( ) NAMED_UNIT ( * ) SI_UNIT ( .MILLI., .METRE. ) );
#181 = FACE_OUTER_BOUND ( 'NONE', #9, .T. ) ;
#182 = CARTESIAN_POINT ( 'NONE',  ( 19.00000000000000000, 19.00000000000000000, 4.000000000000000000 ) ) ;
#183 = ORIENTED_EDGE ( 'NONE', *, *, #274, .T. ) ;
#184 = ORIENTED_EDGE ( 'NONE', *, *, #19, .F. ) ;
#185 =( NAMED_UNIT ( * ) PLANE_ANGLE_UNIT ( ) SI_UNIT ( $, .RADIAN. ) );
#186 = DIRECTION ( 'NONE',  ( -1.000000000000000000, 0.0000000000000000000, 0.0000000000000000000 ) ) ;
#187 = AXIS2_PLACEMENT_3D ( 'NONE', #31, #12, #27 ) ;
#188 = DIRECTION ( 'NONE',  ( 1.000000000000000000, 0.0000000000000000000, 0.0000000000000000000 ) ) ;
#189 = EDGE_CURVE ( 'NONE', #92, #225, #216, .T. ) ;
#190 = VECTOR ( 'NONE', #231, 1000.000000000000000 ) ;
#191 = DIRECTION ( 'NONE',  ( 0.0000000000000000000, 0.0000000000000000000, 1.000000000000000000 ) ) ;
#192 = UNCERTAINTY_MEASURE_WITH_UNIT (LENGTH_MEASURE( 1.000000000000000100E-005 ), #141, 'distance_accuracy_value', 'NONE');
#193 = CARTESIAN_POINT ( 'NONE',  ( 9.499999999999998200, 9.500000000000000000, 4.000000000000000000 ) ) ;
#194 = CARTESIAN_POINT ( 'NONE',  ( 9.499999999999998200, 9.500000000000000000, 4.000000000000000000 ) ) ;
#195 = PLANE ( 'NONE',  #246 ) ;
#196 = VECTOR ( 'NONE', #63, 1000.000000000000000 ) ;
#197 = CARTESIAN_POINT ( 'NONE',  ( 19.00000000000000000, 2.326752072262516800E-015, 4.000000000000000000 ) ) ;
#198 = CIRCLE ( 'NONE', #5, 2.500000000000000400 ) ;
#199 = AXIS2_PLACEMENT_3D ( 'NONE', #149, #105, #104 ) ;
#200 = DIRECTION ( 'NONE',  ( -0.0000000000000000000, -0.0000000000000000000, -1.000000000000000000 ) ) ;
#201 = AXIS2_PLACEMENT_3D ( 'NONE', #37, #272, #53 ) ;
#202 = CARTESIAN_POINT ( 'NONE',  ( 19.00000000000000000, 2.326752072262516800E-015, 0.0000000000000000000 ) ) ;
#203 =( NAMED_UNIT ( * ) SI_UNIT ( $, .STERADIAN. ) SOLID_ANGLE_UNIT ( ) );
#204 = ORIENTED_EDGE ( 'NONE', *, *, #234, .F. ) ;
#205 = DIRECTION ( 'NONE',  ( -0.0000000000000000000, -0.0000000000000000000, -1.000000000000000000 ) ) ;
#206 = CARTESIAN_POINT ( 'NONE',  ( 0.0000000000000000000, 19.00000000000000000, 0.0000000000000000000 ) ) ;
#207 = VECTOR ( 'NONE', #236, 1000.000000000000000 ) ;
#208 = EDGE_CURVE ( 'NONE', #45, #92, #260, .T. ) ;
#209 = SURFACE_STYLE_USAGE ( .BOTH. , #266 ) ;
#210 = CARTESIAN_POINT ( 'NONE',  ( 19.00000000000000000, 2.326752072262516800E-015, 4.000000000000000000 ) ) ;
#211 = ADVANCED_FACE ( 'NONE', ( #129 ), #224, .F. ) ;
#212 = DIRECTION ( 'NONE',  ( -0.0000000000000000000, -0.0000000000000000000, -1.000000000000000000 ) ) ;
#213 = ORIENTED_EDGE ( 'NONE', *, *, #121, .T. ) ;
#214 = LINE ( 'NONE', #34, #196 ) ;
#215 = DIRECTION ( 'NONE',  ( -1.000000000000000000, -1.224606353822377300E-016, 0.0000000000000000000 ) ) ;
#216 = LINE ( 'NONE', #247, #207 ) ;
#217 = PRODUCT_DEFINITION ( 'UNKNOWN', '', #228, #1 ) ;
#218 = DIRECTION ( 'NONE',  ( -1.224606353822377300E-016, 1.000000000000000000, 0.0000000000000000000 ) ) ;
#219 = CARTESIAN_POINT ( 'NONE',  ( 6.999999999999997300, 9.500000000000000000, 4.000000000000000000 ) ) ;
#220 = ORIENTED_EDGE ( 'NONE', *, *, #156, .T. ) ;
#221 = EDGE_CURVE ( 'NONE', #239, #4, #254, .T. ) ;
#222 = CARTESIAN_POINT ( 'NONE',  ( 0.0000000000000000000, 0.0000000000000000000, 4.000000000000000000 ) ) ;
#223 = LINE ( 'NONE', #202, #176 ) ;
#224 = PLANE ( 'NONE',  #18 ) ;
#225 = VERTEX_POINT ( 'NONE', #206 ) ;
#226 = COLOUR_RGB ( '',0.6470588235294118000, 0.6196078431372549200, 0.5882352941176470800 ) ;
#227 = FACE_OUTER_BOUND ( 'NONE', #128, .T. ) ;
#228 = PRODUCT_DEFINITION_FORMATION_WITH_SPECIFIED_SOURCE ( 'ANY', '', #256, .NOT_KNOWN. ) ;
#229 = CARTESIAN_POINT ( 'NONE',  ( 11.99999999999999800, 9.500000000000000000, 4.000000000000000000 ) ) ;
#230 = ORIENTED_EDGE ( 'NONE', *, *, #262, .F. ) ;
#231 = DIRECTION ( 'NONE',  ( -1.000000000000000000, -0.0000000000000000000, -0.0000000000000000000 ) ) ;
#232 = AXIS2_PLACEMENT_3D ( 'NONE', #47, #2, #10 ) ;
#233 = DIRECTION ( 'NONE',  ( -1.000000000000000000, -0.0000000000000000000, -0.0000000000000000000 ) ) ;
#234 = EDGE_CURVE ( 'NONE', #237, #177, #198, .T. ) ;
#235 = LINE ( 'NONE', #219, #95 ) ;
#236 = DIRECTION ( 'NONE',  ( -0.0000000000000000000, -0.0000000000000000000, -1.000000000000000000 ) ) ;
#237 = VERTEX_POINT ( 'NONE', #229 ) ;
#238 = DIRECTION ( 'NONE',  ( 0.0000000000000000000, 1.000000000000000000, 0.0000000000000000000 ) ) ;
#239 = VERTEX_POINT ( 'NONE', #197 ) ;
#240 = CARTESIAN_POINT ( 'NONE',  ( 19.00000000000000000, 2.326752072262516800E-015, 4.000000000000000000 ) ) ;
#241 = ADVANCED_FACE ( 'NONE', ( #30 ), #26, .F. ) ;
#242 = PRODUCT_RELATED_PRODUCT_CATEGORY ( 'part', '', ( #256 ) ) ;
#243 = ORIENTED_EDGE ( 'NONE', *, *, #208, .T. ) ;
#244 = CARTESIAN_POINT ( 'NONE',  ( 0.0000000000000000000, 19.00000000000000000, 0.0000000000000000000 ) ) ;
#245 = DIRECTION ( 'NONE',  ( -1.000000000000000000, 0.0000000000000000000, 0.0000000000000000000 ) ) ;
#246 = AXIS2_PLACEMENT_3D ( 'NONE', #8, #245, #263 ) ;
#247 = CARTESIAN_POINT ( 'NONE',  ( 0.0000000000000000000, 19.00000000000000000, 4.000000000000000000 ) ) ;
#248 = EDGE_CURVE ( 'NONE', #45, #60, #80, .T. ) ;
#249 = CARTESIAN_POINT ( 'NONE',  ( 6.999999999999997300, 9.500000000000000000, 4.000000000000000000 ) ) ;
#250 = DIRECTION ( 'NONE',  ( -1.000000000000000000, 0.0000000000000000000, -0.0000000000000000000 ) ) ;
#251 = DIRECTION ( 'NONE',  ( 0.0000000000000000000, 0.0000000000000000000, -1.000000000000000000 ) ) ;
#252 = FACE_OUTER_BOUND ( 'NONE', #49, .T. ) ;
#253 = CARTESIAN_POINT ( 'NONE',  ( 0.0000000000000000000, 19.00000000000000000, 4.000000000000000000 ) ) ;
#254 = LINE ( 'NONE', #210, #138 ) ;
#255 = DIRECTION ( 'NONE',  ( -0.0000000000000000000, -0.0000000000000000000, -1.000000000000000000 ) ) ;
#256 = PRODUCT ( '096p0191904m6', '096p0191904m6', '', ( #100 ) ) ;
#257 = CARTESIAN_POINT ( 'NONE',  ( 0.0000000000000000000, 0.0000000000000000000, 4.000000000000000000 ) ) ;
#258 = VECTOR ( 'NONE', #150, 1000.000000000000000 ) ;
#259 = ADVANCED_FACE ( 'NONE', ( #55 ), #175, .F. ) ;
#260 = LINE ( 'NONE', #253, #190 ) ;
#261 = PLANE ( 'NONE',  #273 ) ;
#262 = EDGE_CURVE ( 'NONE', #225, #43, #35, .T. ) ;
#263 = DIRECTION ( 'NONE',  ( 0.0000000000000000000, 0.0000000000000000000, 1.000000000000000000 ) ) ;
#264 = ORIENTED_EDGE ( 'NONE', *, *, #189, .T. ) ;
#265 = FACE_OUTER_BOUND ( 'NONE', #120, .T. ) ;
#266 = SURFACE_SIDE_STYLE ('',( #115 ) ) ;
#267 = FILL_AREA_STYLE_COLOUR ( '', #226 ) ;
#268 = CARTESIAN_POINT ( 'NONE',  ( 0.0000000000000000000, 19.00000000000000000, 0.0000000000000000000 ) ) ;
#269 = ORIENTED_EDGE ( 'NONE', *, *, #33, .F. ) ;
#270 = UNCERTAINTY_MEASURE_WITH_UNIT (LENGTH_MEASURE( 1.000000000000000100E-005 ), #118, 'distance_accuracy_value', 'NONE');
#271 = ORIENTED_EDGE ( 'NONE', *, *, #7, .F. ) ;
#272 = DIRECTION ( 'NONE',  ( 0.0000000000000000000, 0.0000000000000000000, 1.000000000000000000 ) ) ;
#273 = AXIS2_PLACEMENT_3D ( 'NONE', #268, #251, #250 ) ;
#274 = EDGE_CURVE ( 'NONE', #43, #4, #127, .T. ) ;
#275 = CARTESIAN_POINT ( 'NONE',  ( 0.0000000000000000000, 0.0000000000000000000, 4.000000000000000000 ) ) ;
#276 = ORIENTED_EDGE ( 'NONE', *, *, #102, .F. ) ;
ENDSEC;
END-ISO-10303-21;
