ISO-10303-21;
HEADER;
FILE_DESCRIPTION (( 'STEP AP214' ),
    '1' );
FILE_NAME ('096P0191904M5.STEP',
    '2014-08-18T12:38:15',
    ( '' ),
    ( '' ),
    'SwSTEP 2.0',
    'SolidWorks 2014',
    '' );
FILE_SCHEMA (( 'AUTOMOTIVE_DESIGN' ));
ENDSEC;

DATA;
#1 = CARTESIAN_POINT ( 'NONE',  ( -2.099999999999999600, 2.571758278209441000E-016, 2.000000000000000000 ) ) ;
#2 = SURFACE_SIDE_STYLE ('',( #151 ) ) ;
#3 = FACE_OUTER_BOUND ( 'NONE', #109, .T. ) ;
#4 = DIRECTION ( 'NONE',  ( -0.0000000000000000000, -0.0000000000000000000, 1.000000000000000000 ) ) ;
#5 = DIRECTION ( 'NONE',  ( 0.0000000000000000000, 1.000000000000000000, 0.0000000000000000000 ) ) ;
#6 = CARTESIAN_POINT ( 'NONE',  ( 2.100000000000000100, 0.0000000000000000000, 1.575000000000000800 ) ) ;
#7 = EDGE_CURVE ( 'NONE', #187, #72, #307, .T. ) ;
#8 = DIRECTION ( 'NONE',  ( 1.000000000000000000, 0.0000000000000000000, -0.0000000000000000000 ) ) ;
#9 = FACE_OUTER_BOUND ( 'NONE', #10, .T. ) ;
#10 = EDGE_LOOP ( 'NONE', ( #278, #103, #128, #79 ) ) ;
#11 = CARTESIAN_POINT ( 'NONE',  ( 9.500000000000000000, -9.499999999999996400, 2.000000000000000000 ) ) ;
#12 = ORIENTED_EDGE ( 'NONE', *, *, #67, .F. ) ;
#13 = CARTESIAN_POINT ( 'NONE',  ( 0.0000000000000000000, 0.0000000000000000000, 2.000000000000000000 ) ) ;
#14 = DIRECTION ( 'NONE',  ( 1.000000000000000000, 0.0000000000000000000, 0.0000000000000000000 ) ) ;
#15 = DIRECTION ( 'NONE',  ( -0.7071067811865483500, 8.659560562354942700E-017, 0.7071067811865468000 ) ) ;
#16 = EDGE_CURVE ( 'NONE', #327, #310, #286, .T. ) ;
#17 = FILL_AREA_STYLE_COLOUR ( '', #300 ) ;
#18 = ADVANCED_FACE ( 'NONE', ( #299, #316 ), #24, .F. ) ;
#19 =( GEOMETRIC_REPRESENTATION_CONTEXT ( 3 ) GLOBAL_UNCERTAINTY_ASSIGNED_CONTEXT ( ( #52 ) ) GLOBAL_UNIT_ASSIGNED_CONTEXT ( ( #393, #149, #383 ) ) REPRESENTATION_CONTEXT ( 'NONE', 'WORKASPACE' ) );
#20 = ORIENTED_EDGE ( 'NONE', *, *, #366, .F. ) ;
#21 = FILL_AREA_STYLE ('',( #17 ) ) ;
#22 = ORIENTED_EDGE ( 'NONE', *, *, #50, .T. ) ;
#23 = PRESENTATION_LAYER_ASSIGNMENT (  '', '', ( #405 ) ) ;
#24 = PLANE ( 'NONE',  #298 ) ;
#25 = CARTESIAN_POINT ( 'NONE',  ( 9.500000000000000000, 9.500000000000003600, 2.000000000000000000 ) ) ;
#26 = EDGE_CURVE ( 'NONE', #183, #361, #246, .T. ) ;
#27 = ORIENTED_EDGE ( 'NONE', *, *, #57, .T. ) ;
#28 = DIRECTION ( 'NONE',  ( -0.0000000000000000000, -0.0000000000000000000, -1.000000000000000000 ) ) ;
#29 = CARTESIAN_POINT ( 'NONE',  ( -2.524999999999999900, 3.092233167847066500E-016, 2.000000000000000000 ) ) ;
#30 = CONICAL_SURFACE ( 'NONE', #205, 2.524999999999999900, 0.7853981633974492800 ) ;
#31 = ORIENTED_EDGE ( 'NONE', *, *, #175, .F. ) ;
#32 = DIRECTION ( 'NONE',  ( -1.000000000000000000, 0.0000000000000000000, 0.0000000000000000000 ) ) ;
#33 = EDGE_CURVE ( 'NONE', #326, #221, #227, .T. ) ;
#34 = LINE ( 'NONE', #214, #126 ) ;
#35 = DIRECTION ( 'NONE',  ( 0.0000000000000000000, 0.0000000000000000000, -1.000000000000000000 ) ) ;
#36 = DIRECTION ( 'NONE',  ( 1.000000000000000000, 0.0000000000000000000, 0.0000000000000000000 ) ) ;
#37 = DIRECTION ( 'NONE',  ( -0.0000000000000000000, -0.0000000000000000000, 1.000000000000000000 ) ) ;
#38 = ORIENTED_EDGE ( 'NONE', *, *, #175, .T. ) ;
#39 = CARTESIAN_POINT ( 'NONE',  ( 0.0000000000000000000, 0.0000000000000000000, 1.575000000000000800 ) ) ;
#40 = CARTESIAN_POINT ( 'NONE',  ( 9.500000000000000000, -9.499999999999996400, -2.000000000000000000 ) ) ;
#41 = MANIFOLD_SOLID_BREP ( 'M5 Gewindebohrung1', #150 ) ;
#42 = DIRECTION ( 'NONE',  ( 0.7071067811865483500, 0.0000000000000000000, 0.7071067811865468000 ) ) ;
#43 = MECHANICAL_DESIGN_GEOMETRIC_PRESENTATION_REPRESENTATION (  '', ( #405 ), #62 ) ;
#44 = LINE ( 'NONE', #162, #382 ) ;
#45 = ORIENTED_EDGE ( 'NONE', *, *, #342, .F. ) ;
#46 = FACE_OUTER_BOUND ( 'NONE', #200, .T. ) ;
#47 = LINE ( 'NONE', #184, #95 ) ;
#48 = ADVANCED_FACE ( 'NONE', ( #9 ), #209, .F. ) ;
#49 = ORIENTED_EDGE ( 'NONE', *, *, #26, .F. ) ;
#50 = EDGE_CURVE ( 'NONE', #326, #327, #291, .T. ) ;
#51 = DIRECTION ( 'NONE',  ( 1.000000000000000000, 1.826024711554533900E-016, -0.0000000000000000000 ) ) ;
#52 = UNCERTAINTY_MEASURE_WITH_UNIT (LENGTH_MEASURE( 1.000000000000000100E-005 ), #393, 'distance_accuracy_value', 'NONE');
#53 = VECTOR ( 'NONE', #15, 999.9999999999998900 ) ;
#54 = CIRCLE ( 'NONE', #266, 2.100000000000000100 ) ;
#55 = CARTESIAN_POINT ( 'NONE',  ( 0.0000000000000000000, 0.0000000000000000000, 0.0000000000000000000 ) ) ;
#56 = FACE_BOUND ( 'NONE', #240, .T. ) ;
#57 = EDGE_CURVE ( 'NONE', #326, #187, #303, .T. ) ;
#58 = ORIENTED_EDGE ( 'NONE', *, *, #26, .T. ) ;
#59 = STYLED_ITEM ( 'NONE', ( #90 ), #377 ) ;
#60 = EDGE_LOOP ( 'NONE', ( #403, #45, #404, #178 ) ) ;
#61 = LINE ( 'NONE', #29, #53 ) ;
#62 =( GEOMETRIC_REPRESENTATION_CONTEXT ( 3 ) GLOBAL_UNCERTAINTY_ASSIGNED_CONTEXT ( ( #263 ) ) GLOBAL_UNIT_ASSIGNED_CONTEXT ( ( #315, #313, #312 ) ) REPRESENTATION_CONTEXT ( 'NONE', 'WORKASPACE' ) );
#63 = FACE_OUTER_BOUND ( 'NONE', #256, .T. ) ;
#64 = FACE_OUTER_BOUND ( 'NONE', #406, .T. ) ;
#65 = CARTESIAN_POINT ( 'NONE',  ( -2.524999999999999900, 3.092233167847066500E-016, 2.000000000000000000 ) ) ;
#66 = CARTESIAN_POINT ( 'NONE',  ( 9.500000000000000000, 9.500000000000003600, -2.000000000000000000 ) ) ;
#67 = EDGE_CURVE ( 'NONE', #310, #221, #269, .T. ) ;
#68 = DIRECTION ( 'NONE',  ( 0.0000000000000000000, -0.0000000000000000000, 1.000000000000000000 ) ) ;
#69 = CARTESIAN_POINT ( 'NONE',  ( 0.0000000000000000000, 0.0000000000000000000, -1.574999999999998600 ) ) ;
#70 = ORIENTED_EDGE ( 'NONE', *, *, #57, .F. ) ;
#71 = VECTOR ( 'NONE', #51, 1000.000000000000000 ) ;
#72 = VERTEX_POINT ( 'NONE', #302 ) ;
#73 = CARTESIAN_POINT ( 'NONE',  ( 2.524999999999999900, 0.0000000000000000000, 2.000000000000000000 ) ) ;
#74 = VECTOR ( 'NONE', #234, 1000.000000000000000 ) ;
#75 = EDGE_CURVE ( 'NONE', #72, #187, #137, .T. ) ;
#76 = CARTESIAN_POINT ( 'NONE',  ( 2.524999999999999000, 3.092233167847065500E-016, -1.999999999999999100 ) ) ;
#77 = ADVANCED_FACE ( 'NONE', ( #46 ), #280, .F. ) ;
#78 = CARTESIAN_POINT ( 'NONE',  ( 9.500000000000000000, -9.499999999999996400, 2.000000000000000000 ) ) ;
#79 = ORIENTED_EDGE ( 'NONE', *, *, #33, .F. ) ;
#80 = PRESENTATION_LAYER_ASSIGNMENT (  '', '', ( #59 ) ) ;
#81 = CARTESIAN_POINT ( 'NONE',  ( 0.0000000000000000000, 0.0000000000000000000, -2.000000000000000000 ) ) ;
#82 = PRESENTATION_STYLE_ASSIGNMENT (( #333 ) ) ;
#83 = ORIENTED_EDGE ( 'NONE', *, *, #305, .F. ) ;
#84 = AXIS2_PLACEMENT_3D ( 'NONE', #259, #257, #252 ) ;
#85 = DIRECTION ( 'NONE',  ( -0.0000000000000000000, -0.0000000000000000000, -1.000000000000000000 ) ) ;
#86 = DIRECTION ( 'NONE',  ( -0.0000000000000000000, -0.0000000000000000000, 1.000000000000000000 ) ) ;
#87 = CARTESIAN_POINT ( 'NONE',  ( 0.0000000000000000000, 0.0000000000000000000, -1.574999999999998600 ) ) ;
#88 = VERTEX_POINT ( 'NONE', #203 ) ;
#89 = ORIENTED_EDGE ( 'NONE', *, *, #115, .F. ) ;
#90 = PRESENTATION_STYLE_ASSIGNMENT (( #399 ) ) ;
#91 = EDGE_LOOP ( 'NONE', ( #89, #328, #83, #119 ) ) ;
#92 = DIRECTION ( 'NONE',  ( 0.0000000000000000000, 0.0000000000000000000, -1.000000000000000000 ) ) ;
#93 = DIRECTION ( 'NONE',  ( 0.0000000000000000000, 0.0000000000000000000, -1.000000000000000000 ) ) ;
#94 = VERTEX_POINT ( 'NONE', #217 ) ;
#95 = VECTOR ( 'NONE', #176, 1000.000000000000000 ) ;
#96 = DIRECTION ( 'NONE',  ( 1.000000000000000000, 0.0000000000000000000, 0.0000000000000000000 ) ) ;
#97 = EDGE_CURVE ( 'NONE', #327, #72, #34, .T. ) ;
#98 = CARTESIAN_POINT ( 'NONE',  ( -9.500000000000000000, 9.500000000000000000, 2.000000000000000000 ) ) ;
#99 = DIRECTION ( 'NONE',  ( -0.0000000000000000000, -0.0000000000000000000, -1.000000000000000000 ) ) ;
#100 = CARTESIAN_POINT ( 'NONE',  ( 2.524999999999999900, 0.0000000000000000000, 2.000000000000000000 ) ) ;
#101 = PLANE ( 'NONE',  #288 ) ;
#102 = MECHANICAL_DESIGN_GEOMETRIC_PRESENTATION_REPRESENTATION (  '', ( #59 ), #120 ) ;
#103 = ORIENTED_EDGE ( 'NONE', *, *, #16, .T. ) ;
#104 = CARTESIAN_POINT ( 'NONE',  ( 9.500000000000000000, 9.500000000000003600, 2.000000000000000000 ) ) ;
#105 = AXIS2_PLACEMENT_3D ( 'NONE', #295, #290, #289 ) ;
#106 = EDGE_LOOP ( 'NONE', ( #70, #22, #170, #122 ) ) ;
#107 = CARTESIAN_POINT ( 'NONE',  ( -9.500000000000000000, 9.500000000000000000, 2.000000000000000000 ) ) ;
#108 = ADVANCED_FACE ( 'NONE', ( #56, #194 ), #201, .T. ) ;
#109 = EDGE_LOOP ( 'NONE', ( #177, #193, #367, #293 ) ) ;
#110 = UNCERTAINTY_MEASURE_WITH_UNIT (LENGTH_MEASURE( 1.000000000000000100E-005 ), #352, 'distance_accuracy_value', 'NONE');
#111 = DIRECTION ( 'NONE',  ( -1.000000000000000000, 0.0000000000000000000, 0.0000000000000000000 ) ) ;
#112 = DIRECTION ( 'NONE',  ( -0.0000000000000000000, -0.0000000000000000000, 1.000000000000000000 ) ) ;
#113 = LINE ( 'NONE', #121, #124 ) ;
#114 = ORIENTED_EDGE ( 'NONE', *, *, #157, .F. ) ;
#115 = EDGE_CURVE ( 'NONE', #88, #287, #44, .T. ) ;
#116 = CARTESIAN_POINT ( 'NONE',  ( -9.500000000000000000, -9.500000000000000000, 2.000000000000000000 ) ) ;
#117 = VECTOR ( 'NONE', #159, 1000.000000000000000 ) ;
#118 = CARTESIAN_POINT ( 'NONE',  ( -2.099999999999999600, 0.0000000000000000000, -1.574999999999998600 ) ) ;
#119 = ORIENTED_EDGE ( 'NONE', *, *, #195, .F. ) ;
#120 =( GEOMETRIC_REPRESENTATION_CONTEXT ( 3 ) GLOBAL_UNCERTAINTY_ASSIGNED_CONTEXT ( ( #148 ) ) GLOBAL_UNIT_ASSIGNED_CONTEXT ( ( #378, #389, #296 ) ) REPRESENTATION_CONTEXT ( 'NONE', 'WORKASPACE' ) );
#121 = CARTESIAN_POINT ( 'NONE',  ( -9.500000000000000000, -9.500000000000000000, 2.000000000000000000 ) ) ;
#122 = ORIENTED_EDGE ( 'NONE', *, *, #7, .F. ) ;
#123 = AXIS2_PLACEMENT_3D ( 'NONE', #368, #394, #309 ) ;
#124 = VECTOR ( 'NONE', #199, 1000.000000000000000 ) ;
#125 = ORIENTED_EDGE ( 'NONE', *, *, #260, .T. ) ;
#126 = VECTOR ( 'NONE', #340, 999.9999999999998900 ) ;
#127 = DIRECTION ( 'NONE',  ( -0.0000000000000000000, -0.0000000000000000000, 1.000000000000000000 ) ) ;
#128 = ORIENTED_EDGE ( 'NONE', *, *, #67, .T. ) ;
#129 = CARTESIAN_POINT ( 'NONE',  ( 0.0000000000000000000, 0.0000000000000000000, 2.000000000000000000 ) ) ;
#130 = DIRECTION ( 'NONE',  ( 0.0000000000000000000, 0.0000000000000000000, 1.000000000000000000 ) ) ;
#131 = DIRECTION ( 'NONE',  ( -1.000000000000000000, 0.0000000000000000000, 0.0000000000000000000 ) ) ;
#132 = CARTESIAN_POINT ( 'NONE',  ( 9.500000000000000000, -9.499999999999996400, -2.000000000000000000 ) ) ;
#133 = DIRECTION ( 'NONE',  ( 1.000000000000000000, 0.0000000000000000000, 0.0000000000000000000 ) ) ;
#134 = ORIENTED_EDGE ( 'NONE', *, *, #342, .T. ) ;
#135 = CARTESIAN_POINT ( 'NONE',  ( 0.0000000000000000000, 0.0000000000000000000, -1.999999999999999100 ) ) ;
#136 = DIRECTION ( 'NONE',  ( -0.0000000000000000000, -0.0000000000000000000, -1.000000000000000000 ) ) ;
#137 = CIRCLE ( 'NONE', #147, 2.524999999999999000 ) ;
#138 = VECTOR ( 'NONE', #267, 1000.000000000000000 ) ;
#139 = EDGE_CURVE ( 'NONE', #94, #287, #145, .T. ) ;
#140 = ORIENTED_EDGE ( 'NONE', *, *, #323, .F. ) ;
#141 = CIRCLE ( 'NONE', #375, 2.524999999999999900 ) ;
#142 = ADVANCED_FACE ( 'NONE', ( #63 ), #30, .F. ) ;
#143 = DIRECTION ( 'NONE',  ( 1.000000000000000000, 0.0000000000000000000, 0.0000000000000000000 ) ) ;
#144 = FACE_OUTER_BOUND ( 'NONE', #106, .T. ) ;
#145 = LINE ( 'NONE', #154, #276 ) ;
#146 = CARTESIAN_POINT ( 'NONE',  ( 0.0000000000000000000, 0.0000000000000000000, -1.574999999999998600 ) ) ;
#147 = AXIS2_PLACEMENT_3D ( 'NONE', #241, #230, #218 ) ;
#148 = UNCERTAINTY_MEASURE_WITH_UNIT (LENGTH_MEASURE( 1.000000000000000100E-005 ), #378, 'distance_accuracy_value', 'NONE');
#149 =( NAMED_UNIT ( * ) PLANE_ANGLE_UNIT ( ) SI_UNIT ( $, .RADIAN. ) );
#150 = CLOSED_SHELL ( 'NONE', ( #77, #48, #350, #168, #294, #324, #261, #108, #18, #197, #232, #142 ) ) ;
#151 = SURFACE_STYLE_FILL_AREA ( #21 ) ;
#152 = EDGE_LOOP ( 'NONE', ( #242, #264, #335, #347 ) ) ;
#153 = ORIENTED_EDGE ( 'NONE', *, *, #281, .T. ) ;
#154 = CARTESIAN_POINT ( 'NONE',  ( -9.500000000000000000, -9.500000000000000000, 2.000000000000000000 ) ) ;
#155 = CARTESIAN_POINT ( 'NONE',  ( 9.500000000000000000, -9.499999999999996400, 2.000000000000000000 ) ) ;
#156 = LINE ( 'NONE', #265, #138 ) ;
#157 = EDGE_CURVE ( 'NONE', #163, #94, #113, .T. ) ;
#158 = SURFACE_STYLE_FILL_AREA ( #362 ) ;
#159 = DIRECTION ( 'NONE',  ( -1.000000000000000000, -1.826024711554533900E-016, 0.0000000000000000000 ) ) ;
#160 = LINE ( 'NONE', #11, #228 ) ;
#161 = ORIENTED_EDGE ( 'NONE', *, *, #213, .F. ) ;
#162 = CARTESIAN_POINT ( 'NONE',  ( -9.500000000000000000, -9.500000000000000000, -2.000000000000000000 ) ) ;
#163 = VERTEX_POINT ( 'NONE', #98 ) ;
#164 = AXIS2_PLACEMENT_3D ( 'NONE', #244, #273, #250 ) ;
#165 = LINE ( 'NONE', #225, #74 ) ;
#166 = COLOUR_RGB ( '',0.8941176470588234600, 0.9137254901960784000, 0.9294117647058823800 ) ;
#167 = DIRECTION ( 'NONE',  ( 1.000000000000000000, 0.0000000000000000000, -0.0000000000000000000 ) ) ;
#168 = ADVANCED_FACE ( 'NONE', ( #207 ), #101, .F. ) ;
#169 = PLANE ( 'NONE',  #354 ) ;
#170 = ORIENTED_EDGE ( 'NONE', *, *, #97, .T. ) ;
#171 = ORIENTED_EDGE ( 'NONE', *, *, #366, .T. ) ;
#172 = CARTESIAN_POINT ( 'NONE',  ( 2.099999999999999600, 2.831995723028253300E-016, -1.574999999999998600 ) ) ;
#173 = ORIENTED_EDGE ( 'NONE', *, *, #157, .T. ) ;
#174 = VECTOR ( 'NONE', #99, 1000.000000000000000 ) ;
#175 = EDGE_CURVE ( 'NONE', #163, #88, #216, .T. ) ;
#176 = DIRECTION ( 'NONE',  ( 0.0000000000000000000, 1.000000000000000000, 0.0000000000000000000 ) ) ;
#177 = ORIENTED_EDGE ( 'NONE', *, *, #195, .T. ) ;
#178 = ORIENTED_EDGE ( 'NONE', *, *, #220, .T. ) ;
#179 = DIRECTION ( 'NONE',  ( 0.0000000000000000000, -0.0000000000000000000, 1.000000000000000000 ) ) ;
#180 = UNCERTAINTY_MEASURE_WITH_UNIT (LENGTH_MEASURE( 1.000000000000000100E-005 ), #285, 'distance_accuracy_value', 'NONE');
#181 = LINE ( 'NONE', #100, #304 ) ;
#182 = AXIS2_PLACEMENT_3D ( 'NONE', #55, #360, #133 ) ;
#183 = VERTEX_POINT ( 'NONE', #65 ) ;
#184 = CARTESIAN_POINT ( 'NONE',  ( 9.500000000000000000, -9.499999999999996400, -2.000000000000000000 ) ) ;
#185 = ORIENTED_EDGE ( 'NONE', *, *, #75, .F. ) ;
#186 = DIRECTION ( 'NONE',  ( -0.0000000000000000000, -1.000000000000000000, -0.0000000000000000000 ) ) ;
#187 = VERTEX_POINT ( 'NONE', #76 ) ;
#188 = CIRCLE ( 'NONE', #402, 2.099999999999999600 ) ;
#189 = CARTESIAN_POINT ( 'NONE',  ( -2.100000000000000100, 2.571758278209441500E-016, 1.575000000000000800 ) ) ;
#190 = VERTEX_POINT ( 'NONE', #66 ) ;
#191 = EDGE_CURVE ( 'NONE', #221, #310, #54, .T. ) ;
#192 = DIRECTION ( 'NONE',  ( -0.0000000000000000000, -0.0000000000000000000, 1.000000000000000000 ) ) ;
#193 = ORIENTED_EDGE ( 'NONE', *, *, #220, .F. ) ;
#194 = FACE_OUTER_BOUND ( 'NONE', #208, .T. ) ;
#195 = EDGE_CURVE ( 'NONE', #287, #341, #301, .T. ) ;
#196 = CARTESIAN_POINT ( 'NONE',  ( 9.500000000000000000, 9.500000000000003600, 2.000000000000000000 ) ) ;
#197 = ADVANCED_FACE ( 'NONE', ( #144 ), #308, .F. ) ;
#198 = SHAPE_DEFINITION_REPRESENTATION ( #345, #377 ) ;
#199 = DIRECTION ( 'NONE',  ( -0.0000000000000000000, -1.000000000000000000, -0.0000000000000000000 ) ) ;
#200 = EDGE_LOOP ( 'NONE', ( #12, #390, #58, #20 ) ) ;
#201 = PLANE ( 'NONE',  #229 ) ;
#202 = PRODUCT_DEFINITION ( 'UNKNOWN', '', #226, #351 ) ;
#203 = CARTESIAN_POINT ( 'NONE',  ( -9.500000000000000000, 9.500000000000000000, -2.000000000000000000 ) ) ;
#204 = VECTOR ( 'NONE', #386, 1000.000000000000000 ) ;
#205 = AXIS2_PLACEMENT_3D ( 'NONE', #129, #127, #143 ) ;
#206 = DIRECTION ( 'NONE',  ( -1.000000000000000000, -1.826024711554533900E-016, 0.0000000000000000000 ) ) ;
#207 = FACE_OUTER_BOUND ( 'NONE', #272, .T. ) ;
#208 = EDGE_LOOP ( 'NONE', ( #173, #125, #317, #379 ) ) ;
#209 = CYLINDRICAL_SURFACE ( 'NONE', #123, 2.099999999999999600 ) ;
#210 = DIRECTION ( 'NONE',  ( -1.826024711554533900E-016, 1.000000000000000000, 0.0000000000000000000 ) ) ;
#211 = PRODUCT ( '096P0191904M5', '096P0191904M5', '', ( #395 ) ) ;
#212 = VERTEX_POINT ( 'NONE', #25 ) ;
#213 = EDGE_CURVE ( 'NONE', #310, #183, #61, .T. ) ;
#214 = CARTESIAN_POINT ( 'NONE',  ( -2.099999999999999600, 0.0000000000000000000, -1.574999999999998600 ) ) ;
#215 = ORIENTED_EDGE ( 'NONE', *, *, #191, .F. ) ;
#216 = LINE ( 'NONE', #107, #359 ) ;
#217 = CARTESIAN_POINT ( 'NONE',  ( -9.500000000000000000, -9.500000000000000000, 2.000000000000000000 ) ) ;
#218 = DIRECTION ( 'NONE',  ( 1.000000000000000000, 0.0000000000000000000, 0.0000000000000000000 ) ) ;
#219 = SURFACE_STYLE_FILL_AREA ( #381 ) ;
#220 = EDGE_CURVE ( 'NONE', #373, #341, #160, .T. ) ;
#221 = VERTEX_POINT ( 'NONE', #6 ) ;
#222 = PLANE ( 'NONE',  #314 ) ;
#223 = CARTESIAN_POINT ( 'NONE',  ( -9.500000000000000000, -9.500000000000000000, -2.000000000000000000 ) ) ;
#224 = CARTESIAN_POINT ( 'NONE',  ( 9.500000000000000000, -9.499999999999996400, 2.000000000000000000 ) ) ;
#225 = CARTESIAN_POINT ( 'NONE',  ( 9.500000000000000000, 9.500000000000003600, -2.000000000000000000 ) ) ;
#226 = PRODUCT_DEFINITION_FORMATION_WITH_SPECIFIED_SOURCE ( 'ANY', '', #211, .NOT_KNOWN. ) ;
#227 = LINE ( 'NONE', #400, #204 ) ;
#228 = VECTOR ( 'NONE', #28, 1000.000000000000000 ) ;
#229 = AXIS2_PLACEMENT_3D ( 'NONE', #277, #179, #167 ) ;
#230 = DIRECTION ( 'NONE',  ( -0.0000000000000000000, -0.0000000000000000000, 1.000000000000000000 ) ) ;
#231 = DIRECTION ( 'NONE',  ( 1.000000000000000000, 0.0000000000000000000, 0.0000000000000000000 ) ) ;
#232 = ADVANCED_FACE ( 'NONE', ( #239 ), #385, .F. ) ;
#233 = AXIS2_PLACEMENT_3D ( 'NONE', #275, #4, #270 ) ;
#234 = DIRECTION ( 'NONE',  ( -1.000000000000000000, -1.826024711554533900E-016, 0.0000000000000000000 ) ) ;
#235 = APPLICATION_PROTOCOL_DEFINITION ( 'draft international standard', 'automotive_design', 1998, #391 ) ;
#236 = DIRECTION ( 'NONE',  ( 1.000000000000000000, 1.826024711554533900E-016, 0.0000000000000000000 ) ) ;
#237 = COLOUR_RGB ( '',0.8941176470588234600, 0.9137254901960784000, 0.9294117647058823800 ) ;
#238 = AXIS2_PLACEMENT_3D ( 'NONE', #135, #86, #371 ) ;
#239 = FACE_OUTER_BOUND ( 'NONE', #152, .T. ) ;
#240 = EDGE_LOOP ( 'NONE', ( #392, #49 ) ) ;
#241 = CARTESIAN_POINT ( 'NONE',  ( 0.0000000000000000000, 0.0000000000000000000, -1.999999999999999100 ) ) ;
#242 = ORIENTED_EDGE ( 'NONE', *, *, #16, .F. ) ;
#243 = DIRECTION ( 'NONE',  ( 1.826024711554533900E-016, -1.000000000000000000, 0.0000000000000000000 ) ) ;
#244 = CARTESIAN_POINT ( 'NONE',  ( 0.0000000000000000000, 0.0000000000000000000, 2.000000000000000000 ) ) ;
#245 = EDGE_CURVE ( 'NONE', #373, #212, #397, .T. ) ;
#246 = CIRCLE ( 'NONE', #274, 2.524999999999999900 ) ;
#247 = PRODUCT_RELATED_PRODUCT_CATEGORY ( 'part', '', ( #211 ) ) ;
#248 = CARTESIAN_POINT ( 'NONE',  ( 9.500000000000000000, 9.500000000000003600, 2.000000000000000000 ) ) ;
#249 = ORIENTED_EDGE ( 'NONE', *, *, #97, .F. ) ;
#250 = DIRECTION ( 'NONE',  ( 1.000000000000000000, 0.0000000000000000000, 0.0000000000000000000 ) ) ;
#251 = PLANE ( 'NONE',  #271 ) ;
#252 = DIRECTION ( 'NONE',  ( 1.000000000000000000, 0.0000000000000000000, 0.0000000000000000000 ) ) ;
#253 = PRESENTATION_STYLE_ASSIGNMENT (( #355 ) ) ;
#254 = ORIENTED_EDGE ( 'NONE', *, *, #387, .T. ) ;
#255 = FACE_OUTER_BOUND ( 'NONE', #284, .T. ) ;
#256 = EDGE_LOOP ( 'NONE', ( #161, #215, #171, #254 ) ) ;
#257 = DIRECTION ( 'NONE',  ( -0.0000000000000000000, -0.0000000000000000000, 1.000000000000000000 ) ) ;
#258 = EDGE_LOOP ( 'NONE', ( #338, #344 ) ) ;
#259 = CARTESIAN_POINT ( 'NONE',  ( 0.0000000000000000000, 0.0000000000000000000, 1.575000000000000800 ) ) ;
#260 = EDGE_CURVE ( 'NONE', #94, #373, #156, .T. ) ;
#261 = ADVANCED_FACE ( 'NONE', ( #64 ), #251, .F. ) ;
#262 = VECTOR ( 'NONE', #112, 1000.000000000000000 ) ;
#263 = UNCERTAINTY_MEASURE_WITH_UNIT (LENGTH_MEASURE( 1.000000000000000100E-005 ), #315, 'distance_accuracy_value', 'NONE');
#264 = ORIENTED_EDGE ( 'NONE', *, *, #50, .F. ) ;
#265 = CARTESIAN_POINT ( 'NONE',  ( 9.500000000000000000, -9.499999999999996400, 2.000000000000000000 ) ) ;
#266 = AXIS2_PLACEMENT_3D ( 'NONE', #39, #37, #36 ) ;
#267 = DIRECTION ( 'NONE',  ( 1.000000000000000000, 1.826024711554533900E-016, -0.0000000000000000000 ) ) ;
#268 = CARTESIAN_POINT ( 'NONE',  ( 9.500000000000000000, -9.499999999999996400, 2.000000000000000000 ) ) ;
#269 = CIRCLE ( 'NONE', #84, 2.100000000000000100 ) ;
#270 = DIRECTION ( 'NONE',  ( 1.000000000000000000, 0.0000000000000000000, 0.0000000000000000000 ) ) ;
#271 = AXIS2_PLACEMENT_3D ( 'NONE', #248, #243, #236 ) ;
#272 = EDGE_LOOP ( 'NONE', ( #337, #343, #114, #38 ) ) ;
#273 = DIRECTION ( 'NONE',  ( -0.0000000000000000000, -0.0000000000000000000, 1.000000000000000000 ) ) ;
#274 = AXIS2_PLACEMENT_3D ( 'NONE', #376, #374, #372 ) ;
#275 = CARTESIAN_POINT ( 'NONE',  ( 0.0000000000000000000, 0.0000000000000000000, 2.000000000000000000 ) ) ;
#276 = VECTOR ( 'NONE', #136, 1000.000000000000000 ) ;
#277 = CARTESIAN_POINT ( 'NONE',  ( 0.0000000000000000000, 0.0000000000000000000, 2.000000000000000000 ) ) ;
#278 = ORIENTED_EDGE ( 'NONE', *, *, #398, .F. ) ;
#279 =( NAMED_UNIT ( * ) SI_UNIT ( $, .STERADIAN. ) SOLID_ANGLE_UNIT ( ) );
#280 = CONICAL_SURFACE ( 'NONE', #164, 2.524999999999999900, 0.7853981633974492800 ) ;
#281 = EDGE_CURVE ( 'NONE', #190, #88, #165, .T. ) ;
#282 =( NAMED_UNIT ( * ) PLANE_ANGLE_UNIT ( ) SI_UNIT ( $, .RADIAN. ) );
#283 = LINE ( 'NONE', #196, #117 ) ;
#284 = EDGE_LOOP ( 'NONE', ( #369, #27, #185, #249 ) ) ;
#285 =( LENGTH_UNIT ( ) NAMED_UNIT ( * ) SI_UNIT ( .MILLI., .METRE. ) );
#286 = LINE ( 'NONE', #1, #262 ) ;
#287 = VERTEX_POINT ( 'NONE', #223 ) ;
#288 = AXIS2_PLACEMENT_3D ( 'NONE', #116, #96, #92 ) ;
#289 = DIRECTION ( 'NONE',  ( 1.000000000000000000, 0.0000000000000000000, 0.0000000000000000000 ) ) ;
#290 = DIRECTION ( 'NONE',  ( -0.0000000000000000000, -0.0000000000000000000, 1.000000000000000000 ) ) ;
#291 = CIRCLE ( 'NONE', #105, 2.099999999999999600 ) ;
#292 = CONICAL_SURFACE ( 'NONE', #334, 2.099999999999999600, 0.7853981633974472800 ) ;
#293 = ORIENTED_EDGE ( 'NONE', *, *, #139, .T. ) ;
#294 = ADVANCED_FACE ( 'NONE', ( #3 ), #222, .F. ) ;
#295 = CARTESIAN_POINT ( 'NONE',  ( 0.0000000000000000000, 0.0000000000000000000, -1.574999999999998600 ) ) ;
#296 =( NAMED_UNIT ( * ) SI_UNIT ( $, .STERADIAN. ) SOLID_ANGLE_UNIT ( ) );
#297 = CARTESIAN_POINT ( 'NONE',  ( 2.099999999999999600, 2.571758278209441000E-016, -1.574999999999998600 ) ) ;
#298 = AXIS2_PLACEMENT_3D ( 'NONE', #81, #68, #8 ) ;
#299 = FACE_BOUND ( 'NONE', #258, .T. ) ;
#300 = COLOUR_RGB ( '',0.8941176470588234600, 0.9137254901960784000, 0.9294117647058823800 ) ;
#301 = LINE ( 'NONE', #40, #71 ) ;
#302 = CARTESIAN_POINT ( 'NONE',  ( -2.524999999999999000, 0.0000000000000000000, -1.999999999999999100 ) ) ;
#303 = LINE ( 'NONE', #297, #363 ) ;
#304 = VECTOR ( 'NONE', #42, 999.9999999999998900 ) ;
#305 = EDGE_CURVE ( 'NONE', #341, #190, #47, .T. ) ;
#306 = DIRECTION ( 'NONE',  ( 0.7071067811865468000, 8.659560562354925500E-017, -0.7071067811865483500 ) ) ;
#307 = CIRCLE ( 'NONE', #238, 2.524999999999999000 ) ;
#308 = CONICAL_SURFACE ( 'NONE', #311, 2.099999999999999600, 0.7853981633974472800 ) ;
#309 = DIRECTION ( 'NONE',  ( 1.000000000000000000, 0.0000000000000000000, 0.0000000000000000000 ) ) ;
#310 = VERTEX_POINT ( 'NONE', #189 ) ;
#311 = AXIS2_PLACEMENT_3D ( 'NONE', #69, #35, #32 ) ;
#312 =( NAMED_UNIT ( * ) SI_UNIT ( $, .STERADIAN. ) SOLID_ANGLE_UNIT ( ) );
#313 =( NAMED_UNIT ( * ) PLANE_ANGLE_UNIT ( ) SI_UNIT ( $, .RADIAN. ) );
#314 = AXIS2_PLACEMENT_3D ( 'NONE', #224, #210, #206 ) ;
#315 =( LENGTH_UNIT ( ) NAMED_UNIT ( * ) SI_UNIT ( .MILLI., .METRE. ) );
#316 = FACE_OUTER_BOUND ( 'NONE', #91, .T. ) ;
#317 = ORIENTED_EDGE ( 'NONE', *, *, #245, .T. ) ;
#318 = STYLED_ITEM ( 'NONE', ( #253 ), #41 ) ;
#319 = SURFACE_STYLE_USAGE ( .BOTH. , #325 ) ;
#320 = VECTOR ( 'NONE', #5, 1000.000000000000000 ) ;
#321 = LINE ( 'NONE', #104, #174 ) ;
#322 = PRESENTATION_STYLE_ASSIGNMENT (( #319 ) ) ;
#323 = EDGE_CURVE ( 'NONE', #212, #163, #283, .T. ) ;
#324 = ADVANCED_FACE ( 'NONE', ( #353 ), #169, .F. ) ;
#325 = SURFACE_SIDE_STYLE ('',( #332 ) ) ;
#326 = VERTEX_POINT ( 'NONE', #172 ) ;
#327 = VERTEX_POINT ( 'NONE', #118 ) ;
#328 = ORIENTED_EDGE ( 'NONE', *, *, #281, .F. ) ;
#329 = APPLICATION_PROTOCOL_DEFINITION ( 'draft international standard', 'automotive_design', 1998, #384 ) ;
#330 = STYLED_ITEM ( 'NONE', ( #82 ), #232 ) ;
#331 = FILL_AREA_STYLE ('',( #336 ) ) ;
#332 = SURFACE_STYLE_FILL_AREA ( #331 ) ;
#333 = SURFACE_STYLE_USAGE ( .BOTH. , #2 ) ;
#334 = AXIS2_PLACEMENT_3D ( 'NONE', #87, #93, #111 ) ;
#335 = ORIENTED_EDGE ( 'NONE', *, *, #33, .T. ) ;
#336 = FILL_AREA_STYLE_COLOUR ( '', #401 ) ;
#337 = ORIENTED_EDGE ( 'NONE', *, *, #115, .T. ) ;
#338 = ORIENTED_EDGE ( 'NONE', *, *, #75, .T. ) ;
#339 = PRESENTATION_LAYER_ASSIGNMENT (  '', '', ( #318 ) ) ;
#340 = DIRECTION ( 'NONE',  ( -0.7071067811865468000, 0.0000000000000000000, -0.7071067811865483500 ) ) ;
#341 = VERTEX_POINT ( 'NONE', #132 ) ;
#342 = EDGE_CURVE ( 'NONE', #212, #190, #321, .T. ) ;
#343 = ORIENTED_EDGE ( 'NONE', *, *, #139, .F. ) ;
#344 = ORIENTED_EDGE ( 'NONE', *, *, #7, .T. ) ;
#345 = PRODUCT_DEFINITION_SHAPE ( 'NONE', 'NONE',  #202 ) ;
#346 = PRESENTATION_LAYER_ASSIGNMENT (  '', '', ( #330 ) ) ;
#347 = ORIENTED_EDGE ( 'NONE', *, *, #191, .T. ) ;
#348 =( NAMED_UNIT ( * ) SI_UNIT ( $, .STERADIAN. ) SOLID_ANGLE_UNIT ( ) );
#349 =( NAMED_UNIT ( * ) PLANE_ANGLE_UNIT ( ) SI_UNIT ( $, .RADIAN. ) );
#350 = ADVANCED_FACE ( 'NONE', ( #255 ), #292, .F. ) ;
#351 = PRODUCT_DEFINITION_CONTEXT ( 'detailed design', #384, 'design' ) ;
#352 =( LENGTH_UNIT ( ) NAMED_UNIT ( * ) SI_UNIT ( .MILLI., .METRE. ) );
#353 = FACE_OUTER_BOUND ( 'NONE', #60, .T. ) ;
#354 = AXIS2_PLACEMENT_3D ( 'NONE', #155, #131, #130 ) ;
#355 = SURFACE_STYLE_USAGE ( .BOTH. , #358 ) ;
#356 = DIRECTION ( 'NONE',  ( -0.0000000000000000000, -0.0000000000000000000, 1.000000000000000000 ) ) ;
#357 = MECHANICAL_DESIGN_GEOMETRIC_PRESENTATION_REPRESENTATION (  '', ( #318 ), #380 ) ;
#358 = SURFACE_SIDE_STYLE ('',( #158 ) ) ;
#359 = VECTOR ( 'NONE', #85, 1000.000000000000000 ) ;
#360 = DIRECTION ( 'NONE',  ( 0.0000000000000000000, 0.0000000000000000000, 1.000000000000000000 ) ) ;
#361 = VERTEX_POINT ( 'NONE', #73 ) ;
#362 = FILL_AREA_STYLE ('',( #364 ) ) ;
#363 = VECTOR ( 'NONE', #306, 999.9999999999998900 ) ;
#364 = FILL_AREA_STYLE_COLOUR ( '', #237 ) ;
#365 = SURFACE_SIDE_STYLE ('',( #219 ) ) ;
#366 = EDGE_CURVE ( 'NONE', #221, #361, #181, .T. ) ;
#367 = ORIENTED_EDGE ( 'NONE', *, *, #260, .F. ) ;
#368 = CARTESIAN_POINT ( 'NONE',  ( 0.0000000000000000000, 0.0000000000000000000, 2.000000000000000000 ) ) ;
#369 = ORIENTED_EDGE ( 'NONE', *, *, #398, .T. ) ;
#370 = MECHANICAL_DESIGN_GEOMETRIC_PRESENTATION_REPRESENTATION (  '', ( #330 ), #396 ) ;
#371 = DIRECTION ( 'NONE',  ( 1.000000000000000000, 0.0000000000000000000, 0.0000000000000000000 ) ) ;
#372 = DIRECTION ( 'NONE',  ( 1.000000000000000000, 0.0000000000000000000, 0.0000000000000000000 ) ) ;
#373 = VERTEX_POINT ( 'NONE', #78 ) ;
#374 = DIRECTION ( 'NONE',  ( -0.0000000000000000000, -0.0000000000000000000, 1.000000000000000000 ) ) ;
#375 = AXIS2_PLACEMENT_3D ( 'NONE', #13, #192, #231 ) ;
#376 = CARTESIAN_POINT ( 'NONE',  ( 0.0000000000000000000, 0.0000000000000000000, 2.000000000000000000 ) ) ;
#377 = ADVANCED_BREP_SHAPE_REPRESENTATION ( '096P0191904M5', ( #41, #182 ), #19 ) ;
#378 =( LENGTH_UNIT ( ) NAMED_UNIT ( * ) SI_UNIT ( .MILLI., .METRE. ) );
#379 = ORIENTED_EDGE ( 'NONE', *, *, #323, .T. ) ;
#380 =( GEOMETRIC_REPRESENTATION_CONTEXT ( 3 ) GLOBAL_UNCERTAINTY_ASSIGNED_CONTEXT ( ( #110 ) ) GLOBAL_UNIT_ASSIGNED_CONTEXT ( ( #352, #349, #348 ) ) REPRESENTATION_CONTEXT ( 'NONE', 'WORKASPACE' ) );
#381 = FILL_AREA_STYLE ('',( #388 ) ) ;
#382 = VECTOR ( 'NONE', #186, 1000.000000000000000 ) ;
#383 =( NAMED_UNIT ( * ) SI_UNIT ( $, .STERADIAN. ) SOLID_ANGLE_UNIT ( ) );
#384 = APPLICATION_CONTEXT ( 'automotive_design' ) ;
#385 = CYLINDRICAL_SURFACE ( 'NONE', #233, 2.099999999999999600 ) ;
#386 = DIRECTION ( 'NONE',  ( -0.0000000000000000000, -0.0000000000000000000, 1.000000000000000000 ) ) ;
#387 = EDGE_CURVE ( 'NONE', #361, #183, #141, .T. ) ;
#388 = FILL_AREA_STYLE_COLOUR ( '', #166 ) ;
#389 =( NAMED_UNIT ( * ) PLANE_ANGLE_UNIT ( ) SI_UNIT ( $, .RADIAN. ) );
#390 = ORIENTED_EDGE ( 'NONE', *, *, #213, .T. ) ;
#391 = APPLICATION_CONTEXT ( 'automotive_design' ) ;
#392 = ORIENTED_EDGE ( 'NONE', *, *, #387, .F. ) ;
#393 =( LENGTH_UNIT ( ) NAMED_UNIT ( * ) SI_UNIT ( .MILLI., .METRE. ) );
#394 = DIRECTION ( 'NONE',  ( -0.0000000000000000000, -0.0000000000000000000, 1.000000000000000000 ) ) ;
#395 = PRODUCT_CONTEXT ( 'NONE', #391, 'mechanical' ) ;
#396 =( GEOMETRIC_REPRESENTATION_CONTEXT ( 3 ) GLOBAL_UNCERTAINTY_ASSIGNED_CONTEXT ( ( #180 ) ) GLOBAL_UNIT_ASSIGNED_CONTEXT ( ( #285, #282, #279 ) ) REPRESENTATION_CONTEXT ( 'NONE', 'WORKASPACE' ) );
#397 = LINE ( 'NONE', #268, #320 ) ;
#398 = EDGE_CURVE ( 'NONE', #327, #326, #188, .T. ) ;
#399 = SURFACE_STYLE_USAGE ( .BOTH. , #365 ) ;
#400 = CARTESIAN_POINT ( 'NONE',  ( 2.099999999999999600, 0.0000000000000000000, 2.000000000000000000 ) ) ;
#401 = COLOUR_RGB ( '',0.8941176470588234600, 0.9137254901960784000, 0.9294117647058823800 ) ;
#402 = AXIS2_PLACEMENT_3D ( 'NONE', #146, #356, #14 ) ;
#403 = ORIENTED_EDGE ( 'NONE', *, *, #305, .T. ) ;
#404 = ORIENTED_EDGE ( 'NONE', *, *, #245, .F. ) ;
#405 = STYLED_ITEM ( 'NONE', ( #322 ), #48 ) ;
#406 = EDGE_LOOP ( 'NONE', ( #153, #31, #140, #134 ) ) ;
ENDSEC;
END-ISO-10303-21;
