ISO-10303-21;
HEADER;
FILE_DESCRIPTION (( 'STEP AP214' ),
    '1' );
FILE_NAME ('096p0191904m4.STEP',
    '2014-08-18T12:37:08',
    ( '' ),
    ( '' ),
    'SwSTEP 2.0',
    'SolidWorks 2014',
    '' );
FILE_SCHEMA (( 'AUTOMOTIVE_DESIGN' ));
ENDSEC;

DATA;
#1 = CARTESIAN_POINT ( 'NONE',  ( 11.10000000000000000, 9.500000000000000000, 0.0000000000000000000 ) ) ;
#2 = DIRECTION ( 'NONE',  ( 0.0000000000000000000, 0.0000000000000000000, -1.000000000000000000 ) ) ;
#3 = DIRECTION ( 'NONE',  ( 1.000000000000000000, 0.0000000000000000000, 0.0000000000000000000 ) ) ;
#4 = DIRECTION ( 'NONE',  ( 1.000000000000000000, 0.0000000000000000000, 0.0000000000000000000 ) ) ;
#5 = FACE_OUTER_BOUND ( 'NONE', #24, .T. ) ;
#6 = DIRECTION ( 'NONE',  ( 0.0000000000000000000, 0.0000000000000000000, -1.000000000000000000 ) ) ;
#7 = PRODUCT_DEFINITION_FORMATION_WITH_SPECIFIED_SOURCE ( 'ANY', '', #154, .NOT_KNOWN. ) ;
#8 = CARTESIAN_POINT ( 'NONE',  ( 19.00000000000000000, 2.326752072262516800E-015, 4.000000000000000000 ) ) ;
#9 = ORIENTED_EDGE ( 'NONE', *, *, #45, .T. ) ;
#10 = VERTEX_POINT ( 'NONE', #71 ) ;
#11 = CARTESIAN_POINT ( 'NONE',  ( 9.499999999999998200, 9.500000000000000000, 0.0000000000000000000 ) ) ;
#12 = DIRECTION ( 'NONE',  ( 0.0000000000000000000, 0.0000000000000000000, 1.000000000000000000 ) ) ;
#13 = STYLED_ITEM ( 'NONE', ( #139 ), #233 ) ;
#14 = VECTOR ( 'NONE', #51, 1000.000000000000000 ) ;
#15 = CARTESIAN_POINT ( 'NONE',  ( 0.0000000000000000000, 0.0000000000000000000, 4.000000000000000000 ) ) ;
#16 = EDGE_CURVE ( 'NONE', #155, #78, #209, .T. ) ;
#17 = ORIENTED_EDGE ( 'NONE', *, *, #241, .T. ) ;
#18 = CARTESIAN_POINT ( 'NONE',  ( 7.899999999999995900, 9.500000000000000000, 4.000000000000000000 ) ) ;
#19 = VERTEX_POINT ( 'NONE', #95 ) ;
#20 = DIRECTION ( 'NONE',  ( 0.0000000000000000000, 0.0000000000000000000, -1.000000000000000000 ) ) ;
#21 = ADVANCED_BREP_SHAPE_REPRESENTATION ( '096p0191904m4', ( #233, #248 ), #130 ) ;
#22 = CARTESIAN_POINT ( 'NONE',  ( 0.0000000000000000000, 0.0000000000000000000, 4.000000000000000000 ) ) ;
#23 = PRODUCT_RELATED_PRODUCT_CATEGORY ( 'part', '', ( #154 ) ) ;
#24 = EDGE_LOOP ( 'NONE', ( #62, #136, #40, #176 ) ) ;
#25 = ORIENTED_EDGE ( 'NONE', *, *, #16, .F. ) ;
#26 = PLANE ( 'NONE',  #264 ) ;
#27 = DIRECTION ( 'NONE',  ( -0.0000000000000000000, -0.0000000000000000000, -1.000000000000000000 ) ) ;
#28 = CARTESIAN_POINT ( 'NONE',  ( 0.0000000000000000000, 0.0000000000000000000, 0.0000000000000000000 ) ) ;
#29 = AXIS2_PLACEMENT_3D ( 'NONE', #245, #113, #131 ) ;
#30 = CARTESIAN_POINT ( 'NONE',  ( 9.499999999999998200, 9.500000000000000000, 4.000000000000000000 ) ) ;
#31 = DIRECTION ( 'NONE',  ( -0.0000000000000000000, -0.0000000000000000000, -1.000000000000000000 ) ) ;
#32 = EDGE_CURVE ( 'NONE', #106, #260, #237, .T. ) ;
#33 = CARTESIAN_POINT ( 'NONE',  ( 0.0000000000000000000, 19.00000000000000000, 4.000000000000000000 ) ) ;
#34 = CARTESIAN_POINT ( 'NONE',  ( 9.499999999999998200, 9.500000000000000000, 0.0000000000000000000 ) ) ;
#35 = CARTESIAN_POINT ( 'NONE',  ( 0.0000000000000000000, 0.0000000000000000000, 0.0000000000000000000 ) ) ;
#36 = DIRECTION ( 'NONE',  ( -1.000000000000000000, 0.0000000000000000000, -0.0000000000000000000 ) ) ;
#37 = VERTEX_POINT ( 'NONE', #191 ) ;
#38 = ADVANCED_FACE ( 'NONE', ( #177 ), #262, .F. ) ;
#39 = CARTESIAN_POINT ( 'NONE',  ( 19.00000000000000000, 2.326752072262516800E-015, 0.0000000000000000000 ) ) ;
#40 = ORIENTED_EDGE ( 'NONE', *, *, #133, .F. ) ;
#41 = CARTESIAN_POINT ( 'NONE',  ( 9.499999999999998200, 9.500000000000000000, 4.000000000000000000 ) ) ;
#42 = CIRCLE ( 'NONE', #79, 1.600000000000002500 ) ;
#43 = COLOUR_RGB ( '',1.000000000000000000, 1.000000000000000000, 1.000000000000000000 ) ;
#44 = PRESENTATION_LAYER_ASSIGNMENT (  '', '', ( #13 ) ) ;
#45 = EDGE_CURVE ( 'NONE', #78, #275, #244, .T. ) ;
#46 = LINE ( 'NONE', #22, #104 ) ;
#47 = EDGE_LOOP ( 'NONE', ( #162, #232, #127, #200 ) ) ;
#48 = DIRECTION ( 'NONE',  ( 0.0000000000000000000, 0.0000000000000000000, 1.000000000000000000 ) ) ;
#49 = DIRECTION ( 'NONE',  ( -0.0000000000000000000, -1.000000000000000000, -0.0000000000000000000 ) ) ;
#50 = DIRECTION ( 'NONE',  ( 1.000000000000000000, 1.224606353822377300E-016, 0.0000000000000000000 ) ) ;
#51 = DIRECTION ( 'NONE',  ( -1.000000000000000000, -0.0000000000000000000, -0.0000000000000000000 ) ) ;
#52 = LINE ( 'NONE', #33, #85 ) ;
#53 = ORIENTED_EDGE ( 'NONE', *, *, #72, .T. ) ;
#54 = ADVANCED_FACE ( 'NONE', ( #128, #181 ), #26, .T. ) ;
#55 = MECHANICAL_DESIGN_GEOMETRIC_PRESENTATION_REPRESENTATION (  '', ( #13 ), #69 ) ;
#56 = DIRECTION ( 'NONE',  ( -0.0000000000000000000, -1.000000000000000000, -0.0000000000000000000 ) ) ;
#57 = LINE ( 'NONE', #134, #228 ) ;
#58 = EDGE_CURVE ( 'NONE', #37, #276, #52, .T. ) ;
#59 = PRODUCT_DEFINITION_SHAPE ( 'NONE', 'NONE',  #263 ) ;
#60 = LINE ( 'NONE', #8, #118 ) ;
#61 = CLOSED_SHELL ( 'NONE', ( #114, #129, #54, #257, #192, #38, #221, #166 ) ) ;
#62 = ORIENTED_EDGE ( 'NONE', *, *, #175, .T. ) ;
#63 = CARTESIAN_POINT ( 'NONE',  ( 19.00000000000000000, 2.326752072262516800E-015, 4.000000000000000000 ) ) ;
#64 = FILL_AREA_STYLE_COLOUR ( '', #43 ) ;
#65 = VECTOR ( 'NONE', #92, 1000.000000000000000 ) ;
#66 = VERTEX_POINT ( 'NONE', #63 ) ;
#67 = DIRECTION ( 'NONE',  ( 1.000000000000000000, 1.224606353822377300E-016, 0.0000000000000000000 ) ) ;
#68 =( NAMED_UNIT ( * ) SI_UNIT ( $, .STERADIAN. ) SOLID_ANGLE_UNIT ( ) );
#69 =( GEOMETRIC_REPRESENTATION_CONTEXT ( 3 ) GLOBAL_UNCERTAINTY_ASSIGNED_CONTEXT ( ( #138 ) ) GLOBAL_UNIT_ASSIGNED_CONTEXT ( ( #75, #73, #68 ) ) REPRESENTATION_CONTEXT ( 'NONE', 'WORKASPACE' ) );
#70 = FACE_OUTER_BOUND ( 'NONE', #101, .T. ) ;
#71 = CARTESIAN_POINT ( 'NONE',  ( 19.00000000000000000, 19.00000000000000000, 0.0000000000000000000 ) ) ;
#72 = EDGE_CURVE ( 'NONE', #37, #106, #46, .T. ) ;
#73 =( NAMED_UNIT ( * ) PLANE_ANGLE_UNIT ( ) SI_UNIT ( $, .RADIAN. ) );
#74 = ORIENTED_EDGE ( 'NONE', *, *, #16, .T. ) ;
#75 =( LENGTH_UNIT ( ) NAMED_UNIT ( * ) SI_UNIT ( .MILLI., .METRE. ) );
#76 = SURFACE_STYLE_USAGE ( .BOTH. , #206 ) ;
#77 = ORIENTED_EDGE ( 'NONE', *, *, #32, .T. ) ;
#78 = VERTEX_POINT ( 'NONE', #246 ) ;
#79 = AXIS2_PLACEMENT_3D ( 'NONE', #11, #48, #4 ) ;
#80 = CARTESIAN_POINT ( 'NONE',  ( 0.0000000000000000000, 0.0000000000000000000, 4.000000000000000000 ) ) ;
#81 = EDGE_CURVE ( 'NONE', #66, #168, #60, .T. ) ;
#82 = ORIENTED_EDGE ( 'NONE', *, *, #254, .F. ) ;
#83 = FILL_AREA_STYLE ('',( #64 ) ) ;
#84 = DIRECTION ( 'NONE',  ( -1.000000000000000000, 0.0000000000000000000, 0.0000000000000000000 ) ) ;
#85 = VECTOR ( 'NONE', #31, 1000.000000000000000 ) ;
#86 = EDGE_LOOP ( 'NONE', ( #122, #220 ) ) ;
#87 = VECTOR ( 'NONE', #50, 1000.000000000000000 ) ;
#88 = PLANE ( 'NONE',  #120 ) ;
#89 = DIRECTION ( 'NONE',  ( -1.000000000000000000, 0.0000000000000000000, 0.0000000000000000000 ) ) ;
#90 = ORIENTED_EDGE ( 'NONE', *, *, #149, .F. ) ;
#91 = DIRECTION ( 'NONE',  ( 0.0000000000000000000, 1.000000000000000000, 0.0000000000000000000 ) ) ;
#92 = DIRECTION ( 'NONE',  ( -1.000000000000000000, -0.0000000000000000000, -0.0000000000000000000 ) ) ;
#93 = FACE_OUTER_BOUND ( 'NONE', #174, .T. ) ;
#94 = ORIENTED_EDGE ( 'NONE', *, *, #133, .T. ) ;
#95 = CARTESIAN_POINT ( 'NONE',  ( 19.00000000000000000, 19.00000000000000000, 4.000000000000000000 ) ) ;
#96 = EDGE_LOOP ( 'NONE', ( #53, #179, #148, #94 ) ) ;
#97 = EDGE_CURVE ( 'NONE', #106, #66, #274, .T. ) ;
#98 = UNCERTAINTY_MEASURE_WITH_UNIT (LENGTH_MEASURE( 1.000000000000000100E-005 ), #213, 'distance_accuracy_value', 'NONE');
#99 = CARTESIAN_POINT ( 'NONE',  ( 0.0000000000000000000, 19.00000000000000000, 0.0000000000000000000 ) ) ;
#100 = FACE_OUTER_BOUND ( 'NONE', #96, .T. ) ;
#101 = EDGE_LOOP ( 'NONE', ( #17, #117, #266, #77 ) ) ;
#102 = CARTESIAN_POINT ( 'NONE',  ( 0.0000000000000000000, 19.00000000000000000, 0.0000000000000000000 ) ) ;
#103 = LINE ( 'NONE', #115, #14 ) ;
#104 = VECTOR ( 'NONE', #56, 1000.000000000000000 ) ;
#105 = ORIENTED_EDGE ( 'NONE', *, *, #161, .T. ) ;
#106 = VERTEX_POINT ( 'NONE', #167 ) ;
#107 = DIRECTION ( 'NONE',  ( 0.0000000000000000000, 0.0000000000000000000, 1.000000000000000000 ) ) ;
#108 = AXIS2_PLACEMENT_3D ( 'NONE', #34, #256, #253 ) ;
#109 = CYLINDRICAL_SURFACE ( 'NONE', #252, 1.600000000000002500 ) ;
#110 = EDGE_CURVE ( 'NONE', #19, #10, #199, .T. ) ;
#111 = ORIENTED_EDGE ( 'NONE', *, *, #45, .F. ) ;
#112 = ORIENTED_EDGE ( 'NONE', *, *, #72, .F. ) ;
#113 = DIRECTION ( 'NONE',  ( 0.0000000000000000000, -1.000000000000000000, 0.0000000000000000000 ) ) ;
#114 = ADVANCED_FACE ( 'NONE', ( #93 ), #150, .F. ) ;
#115 = CARTESIAN_POINT ( 'NONE',  ( 0.0000000000000000000, 19.00000000000000000, 0.0000000000000000000 ) ) ;
#116 = SHAPE_DEFINITION_REPRESENTATION ( #59, #21 ) ;
#117 = ORIENTED_EDGE ( 'NONE', *, *, #81, .F. ) ;
#118 = VECTOR ( 'NONE', #144, 1000.000000000000000 ) ;
#119 = CIRCLE ( 'NONE', #193, 1.600000000000002500 ) ;
#120 = AXIS2_PLACEMENT_3D ( 'NONE', #15, #3, #2 ) ;
#121 = EDGE_CURVE ( 'NONE', #66, #19, #208, .T. ) ;
#122 = ORIENTED_EDGE ( 'NONE', *, *, #254, .T. ) ;
#123 = CARTESIAN_POINT ( 'NONE',  ( 0.0000000000000000000, 0.0000000000000000000, 0.0000000000000000000 ) ) ;
#124 = CARTESIAN_POINT ( 'NONE',  ( 19.00000000000000000, 2.326752072262516800E-015, 0.0000000000000000000 ) ) ;
#125 = VECTOR ( 'NONE', #180, 1000.000000000000000 ) ;
#126 = DIRECTION ( 'NONE',  ( 0.0000000000000000000, 0.0000000000000000000, 1.000000000000000000 ) ) ;
#127 = ORIENTED_EDGE ( 'NONE', *, *, #229, .F. ) ;
#128 = FACE_OUTER_BOUND ( 'NONE', #47, .T. ) ;
#129 = ADVANCED_FACE ( 'NONE', ( #100, #223 ), #163, .F. ) ;
#130 =( GEOMETRIC_REPRESENTATION_CONTEXT ( 3 ) GLOBAL_UNCERTAINTY_ASSIGNED_CONTEXT ( ( #267 ) ) GLOBAL_UNIT_ASSIGNED_CONTEXT ( ( #250, #247, #243 ) ) REPRESENTATION_CONTEXT ( 'NONE', 'WORKASPACE' ) );
#131 = DIRECTION ( 'NONE',  ( 0.0000000000000000000, -0.0000000000000000000, -1.000000000000000000 ) ) ;
#132 = ORIENTED_EDGE ( 'NONE', *, *, #214, .T. ) ;
#133 = EDGE_CURVE ( 'NONE', #19, #37, #273, .T. ) ;
#134 = CARTESIAN_POINT ( 'NONE',  ( 7.899999999999995900, 9.500000000000000000, 4.000000000000000000 ) ) ;
#135 = CARTESIAN_POINT ( 'NONE',  ( 9.499999999999998200, 9.500000000000000000, 4.000000000000000000 ) ) ;
#136 = ORIENTED_EDGE ( 'NONE', *, *, #58, .F. ) ;
#137 = FACE_OUTER_BOUND ( 'NONE', #140, .T. ) ;
#138 = UNCERTAINTY_MEASURE_WITH_UNIT (LENGTH_MEASURE( 1.000000000000000100E-005 ), #75, 'distance_accuracy_value', 'NONE');
#139 = PRESENTATION_STYLE_ASSIGNMENT (( #76 ) ) ;
#140 = EDGE_LOOP ( 'NONE', ( #105, #255, #112, #234 ) ) ;
#141 = CARTESIAN_POINT ( 'NONE',  ( 19.00000000000000000, 19.00000000000000000, 4.000000000000000000 ) ) ;
#142 = VECTOR ( 'NONE', #238, 1000.000000000000000 ) ;
#143 = LINE ( 'NONE', #35, #87 ) ;
#144 = DIRECTION ( 'NONE',  ( -0.0000000000000000000, -0.0000000000000000000, -1.000000000000000000 ) ) ;
#145 = DIRECTION ( 'NONE',  ( -1.000000000000000000, 0.0000000000000000000, -0.0000000000000000000 ) ) ;
#146 = PLANE ( 'NONE',  #29 ) ;
#147 = PRODUCT_DEFINITION_CONTEXT ( 'detailed design', #197, 'design' ) ;
#148 = ORIENTED_EDGE ( 'NONE', *, *, #121, .T. ) ;
#149 = EDGE_CURVE ( 'NONE', #78, #155, #119, .T. ) ;
#150 = CYLINDRICAL_SURFACE ( 'NONE', #178, 1.600000000000002500 ) ;
#151 = ORIENTED_EDGE ( 'NONE', *, *, #272, .F. ) ;
#152 = CARTESIAN_POINT ( 'NONE',  ( 19.00000000000000000, 2.326752072262516800E-015, 4.000000000000000000 ) ) ;
#153 = VECTOR ( 'NONE', #269, 1000.000000000000000 ) ;
#154 = PRODUCT ( '096p0191904m4', '096p0191904m4', '', ( #198 ) ) ;
#155 = VERTEX_POINT ( 'NONE', #18 ) ;
#156 = SURFACE_STYLE_FILL_AREA ( #224 ) ;
#157 = ORIENTED_EDGE ( 'NONE', *, *, #229, .T. ) ;
#158 = DIRECTION ( 'NONE',  ( 1.000000000000000000, 0.0000000000000000000, 0.0000000000000000000 ) ) ;
#159 = CARTESIAN_POINT ( 'NONE',  ( 9.499999999999998200, 9.500000000000000000, 4.000000000000000000 ) ) ;
#160 = STYLED_ITEM ( 'NONE', ( #210 ), #21 ) ;
#161 = EDGE_CURVE ( 'NONE', #276, #260, #165, .T. ) ;
#162 = ORIENTED_EDGE ( 'NONE', *, *, #161, .F. ) ;
#163 = PLANE ( 'NONE',  #212 ) ;
#164 = DIRECTION ( 'NONE',  ( 0.0000000000000000000, 1.000000000000000000, 0.0000000000000000000 ) ) ;
#165 = LINE ( 'NONE', #123, #216 ) ;
#166 = ADVANCED_FACE ( 'NONE', ( #171 ), #109, .F. ) ;
#167 = CARTESIAN_POINT ( 'NONE',  ( 0.0000000000000000000, 0.0000000000000000000, 4.000000000000000000 ) ) ;
#168 = VERTEX_POINT ( 'NONE', #39 ) ;
#169 = ORIENTED_EDGE ( 'NONE', *, *, #81, .T. ) ;
#170 = DIRECTION ( 'NONE',  ( 1.000000000000000000, 0.0000000000000000000, 0.0000000000000000000 ) ) ;
#171 = FACE_OUTER_BOUND ( 'NONE', #226, .T. ) ;
#172 = CARTESIAN_POINT ( 'NONE',  ( 0.0000000000000000000, 19.00000000000000000, 4.000000000000000000 ) ) ;
#173 = PRESENTATION_LAYER_ASSIGNMENT (  '', '', ( #160 ) ) ;
#174 = EDGE_LOOP ( 'NONE', ( #74, #9, #82, #219 ) ) ;
#175 = EDGE_CURVE ( 'NONE', #10, #276, #103, .T. ) ;
#176 = ORIENTED_EDGE ( 'NONE', *, *, #110, .T. ) ;
#177 = FACE_OUTER_BOUND ( 'NONE', #230, .T. ) ;
#178 = AXIS2_PLACEMENT_3D ( 'NONE', #159, #242, #222 ) ;
#179 = ORIENTED_EDGE ( 'NONE', *, *, #97, .T. ) ;
#180 = DIRECTION ( 'NONE',  ( -0.0000000000000000000, -0.0000000000000000000, -1.000000000000000000 ) ) ;
#181 = FACE_BOUND ( 'NONE', #86, .T. ) ;
#182 = CIRCLE ( 'NONE', #108, 1.600000000000002500 ) ;
#183 = CARTESIAN_POINT ( 'NONE',  ( 7.899999999999995900, 9.500000000000000000, 0.0000000000000000000 ) ) ;
#184 = MECHANICAL_DESIGN_GEOMETRIC_PRESENTATION_REPRESENTATION (  '', ( #160 ), #205 ) ;
#185 = ORIENTED_EDGE ( 'NONE', *, *, #110, .F. ) ;
#186 = DIRECTION ( 'NONE',  ( -1.224606353822377300E-016, 1.000000000000000000, 0.0000000000000000000 ) ) ;
#187 = AXIS2_PLACEMENT_3D ( 'NONE', #135, #107, #158 ) ;
#188 = DIRECTION ( 'NONE',  ( -1.000000000000000000, -1.224606353822377300E-016, 0.0000000000000000000 ) ) ;
#189 = ORIENTED_EDGE ( 'NONE', *, *, #121, .F. ) ;
#190 = APPLICATION_PROTOCOL_DEFINITION ( 'draft international standard', 'automotive_design', 1998, #197 ) ;
#191 = CARTESIAN_POINT ( 'NONE',  ( 0.0000000000000000000, 19.00000000000000000, 4.000000000000000000 ) ) ;
#192 = ADVANCED_FACE ( 'NONE', ( #70 ), #268, .F. ) ;
#193 = AXIS2_PLACEMENT_3D ( 'NONE', #41, #12, #170 ) ;
#194 = CARTESIAN_POINT ( 'NONE',  ( 19.00000000000000000, 2.326752072262516800E-015, 4.000000000000000000 ) ) ;
#195 = LINE ( 'NONE', #124, #203 ) ;
#196 = EDGE_LOOP ( 'NONE', ( #25, #90 ) ) ;
#197 = APPLICATION_CONTEXT ( 'automotive_design' ) ;
#198 = PRODUCT_CONTEXT ( 'NONE', #227, 'mechanical' ) ;
#199 = LINE ( 'NONE', #141, #142 ) ;
#200 = ORIENTED_EDGE ( 'NONE', *, *, #241, .F. ) ;
#201 = COLOUR_RGB ( '',1.000000000000000000, 1.000000000000000000, 1.000000000000000000 ) ;
#202 = DIRECTION ( 'NONE',  ( 1.000000000000000000, 0.0000000000000000000, 0.0000000000000000000 ) ) ;
#203 = VECTOR ( 'NONE', #91, 1000.000000000000000 ) ;
#204 = DIRECTION ( 'NONE',  ( 0.0000000000000000000, 0.0000000000000000000, 1.000000000000000000 ) ) ;
#205 =( GEOMETRIC_REPRESENTATION_CONTEXT ( 3 ) GLOBAL_UNCERTAINTY_ASSIGNED_CONTEXT ( ( #98 ) ) GLOBAL_UNIT_ASSIGNED_CONTEXT ( ( #213, #211, #207 ) ) REPRESENTATION_CONTEXT ( 'NONE', 'WORKASPACE' ) );
#206 = SURFACE_SIDE_STYLE ('',( #239 ) ) ;
#207 =( NAMED_UNIT ( * ) SI_UNIT ( $, .STERADIAN. ) SOLID_ANGLE_UNIT ( ) );
#208 = LINE ( 'NONE', #152, #259 ) ;
#209 = CIRCLE ( 'NONE', #187, 1.600000000000002500 ) ;
#210 = PRESENTATION_STYLE_ASSIGNMENT (( #215 ) ) ;
#211 =( NAMED_UNIT ( * ) PLANE_ANGLE_UNIT ( ) SI_UNIT ( $, .RADIAN. ) );
#212 = AXIS2_PLACEMENT_3D ( 'NONE', #172, #6, #145 ) ;
#213 =( LENGTH_UNIT ( ) NAMED_UNIT ( * ) SI_UNIT ( .MILLI., .METRE. ) );
#214 = EDGE_CURVE ( 'NONE', #155, #225, #57, .T. ) ;
#215 = SURFACE_STYLE_USAGE ( .BOTH. , #218 ) ;
#216 = VECTOR ( 'NONE', #49, 1000.000000000000000 ) ;
#217 = CARTESIAN_POINT ( 'NONE',  ( 11.10000000000000000, 9.500000000000000000, 4.000000000000000000 ) ) ;
#218 = SURFACE_SIDE_STYLE ('',( #156 ) ) ;
#219 = ORIENTED_EDGE ( 'NONE', *, *, #214, .F. ) ;
#220 = ORIENTED_EDGE ( 'NONE', *, *, #272, .T. ) ;
#221 = ADVANCED_FACE ( 'NONE', ( #5 ), #146, .F. ) ;
#222 = DIRECTION ( 'NONE',  ( -1.000000000000000000, 0.0000000000000000000, 0.0000000000000000000 ) ) ;
#223 = FACE_BOUND ( 'NONE', #196, .T. ) ;
#224 = FILL_AREA_STYLE ('',( #271 ) ) ;
#225 = VERTEX_POINT ( 'NONE', #183 ) ;
#226 = EDGE_LOOP ( 'NONE', ( #111, #249, #132, #151 ) ) ;
#227 = APPLICATION_CONTEXT ( 'automotive_design' ) ;
#228 = VECTOR ( 'NONE', #251, 1000.000000000000000 ) ;
#229 = EDGE_CURVE ( 'NONE', #168, #10, #195, .T. ) ;
#230 = EDGE_LOOP ( 'NONE', ( #157, #185, #189, #169 ) ) ;
#231 = APPLICATION_PROTOCOL_DEFINITION ( 'draft international standard', 'automotive_design', 1998, #227 ) ;
#232 = ORIENTED_EDGE ( 'NONE', *, *, #175, .F. ) ;
#233 = MANIFOLD_SOLID_BREP ( 'Basis-Linear austragen', #61 ) ;
#234 = ORIENTED_EDGE ( 'NONE', *, *, #58, .T. ) ;
#235 = AXIS2_PLACEMENT_3D ( 'NONE', #194, #84, #126 ) ;
#236 = CARTESIAN_POINT ( 'NONE',  ( 0.0000000000000000000, 0.0000000000000000000, 4.000000000000000000 ) ) ;
#237 = LINE ( 'NONE', #80, #153 ) ;
#238 = DIRECTION ( 'NONE',  ( -0.0000000000000000000, -0.0000000000000000000, -1.000000000000000000 ) ) ;
#239 = SURFACE_STYLE_FILL_AREA ( #83 ) ;
#240 = CARTESIAN_POINT ( 'NONE',  ( 0.0000000000000000000, 0.0000000000000000000, 4.000000000000000000 ) ) ;
#241 = EDGE_CURVE ( 'NONE', #260, #168, #143, .T. ) ;
#242 = DIRECTION ( 'NONE',  ( -0.0000000000000000000, -0.0000000000000000000, -1.000000000000000000 ) ) ;
#243 =( NAMED_UNIT ( * ) SI_UNIT ( $, .STERADIAN. ) SOLID_ANGLE_UNIT ( ) );
#244 = LINE ( 'NONE', #217, #125 ) ;
#245 = CARTESIAN_POINT ( 'NONE',  ( 0.0000000000000000000, 19.00000000000000000, 4.000000000000000000 ) ) ;
#246 = CARTESIAN_POINT ( 'NONE',  ( 11.10000000000000000, 9.500000000000000000, 4.000000000000000000 ) ) ;
#247 =( NAMED_UNIT ( * ) PLANE_ANGLE_UNIT ( ) SI_UNIT ( $, .RADIAN. ) );
#248 = AXIS2_PLACEMENT_3D ( 'NONE', #258, #204, #202 ) ;
#249 = ORIENTED_EDGE ( 'NONE', *, *, #149, .T. ) ;
#250 =( LENGTH_UNIT ( ) NAMED_UNIT ( * ) SI_UNIT ( .MILLI., .METRE. ) );
#251 = DIRECTION ( 'NONE',  ( -0.0000000000000000000, -0.0000000000000000000, -1.000000000000000000 ) ) ;
#252 = AXIS2_PLACEMENT_3D ( 'NONE', #30, #27, #89 ) ;
#253 = DIRECTION ( 'NONE',  ( 1.000000000000000000, 0.0000000000000000000, 0.0000000000000000000 ) ) ;
#254 = EDGE_CURVE ( 'NONE', #225, #275, #42, .T. ) ;
#255 = ORIENTED_EDGE ( 'NONE', *, *, #32, .F. ) ;
#256 = DIRECTION ( 'NONE',  ( 0.0000000000000000000, 0.0000000000000000000, 1.000000000000000000 ) ) ;
#257 = ADVANCED_FACE ( 'NONE', ( #137 ), #88, .F. ) ;
#258 = CARTESIAN_POINT ( 'NONE',  ( 0.0000000000000000000, 0.0000000000000000000, 0.0000000000000000000 ) ) ;
#259 = VECTOR ( 'NONE', #164, 1000.000000000000000 ) ;
#260 = VERTEX_POINT ( 'NONE', #28 ) ;
#261 = CARTESIAN_POINT ( 'NONE',  ( 0.0000000000000000000, 19.00000000000000000, 4.000000000000000000 ) ) ;
#262 = PLANE ( 'NONE',  #235 ) ;
#263 = PRODUCT_DEFINITION ( 'UNKNOWN', '', #7, #147 ) ;
#264 = AXIS2_PLACEMENT_3D ( 'NONE', #99, #20, #36 ) ;
#265 = VECTOR ( 'NONE', #67, 1000.000000000000000 ) ;
#266 = ORIENTED_EDGE ( 'NONE', *, *, #97, .F. ) ;
#267 = UNCERTAINTY_MEASURE_WITH_UNIT (LENGTH_MEASURE( 1.000000000000000100E-005 ), #250, 'distance_accuracy_value', 'NONE');
#268 = PLANE ( 'NONE',  #270 ) ;
#269 = DIRECTION ( 'NONE',  ( -0.0000000000000000000, -0.0000000000000000000, -1.000000000000000000 ) ) ;
#270 = AXIS2_PLACEMENT_3D ( 'NONE', #236, #186, #188 ) ;
#271 = FILL_AREA_STYLE_COLOUR ( '', #201 ) ;
#272 = EDGE_CURVE ( 'NONE', #275, #225, #182, .T. ) ;
#273 = LINE ( 'NONE', #261, #65 ) ;
#274 = LINE ( 'NONE', #240, #265 ) ;
#275 = VERTEX_POINT ( 'NONE', #1 ) ;
#276 = VERTEX_POINT ( 'NONE', #102 ) ;
ENDSEC;
END-ISO-10303-21;
