ISO-10303-21;
HEADER;
FILE_DESCRIPTION (( 'STEP AP214' ),
    '1' );
FILE_NAME ('096p0191604m4.STEP',
    '2014-08-18T12:31:37',
    ( '' ),
    ( '' ),
    'SwSTEP 2.0',
    'SolidWorks 2014',
    '' );
FILE_SCHEMA (( 'AUTOMOTIVE_DESIGN' ));
ENDSEC;

DATA;
#1 = ADVANCED_FACE ( 'NONE', ( #111 ), #104, .F. ) ;
#2 = CIRCLE ( 'NONE', #168, 1.600000000000002500 ) ;
#3 = LINE ( 'NONE', #79, #77 ) ;
#4 = DIRECTION ( 'NONE',  ( 0.0000000000000000000, 0.0000000000000000000, 1.000000000000000000 ) ) ;
#5 = DIRECTION ( 'NONE',  ( 1.000000000000000000, 0.0000000000000000000, 0.0000000000000000000 ) ) ;
#6 = EDGE_CURVE ( 'NONE', #192, #122, #146, .T. ) ;
#7 = AXIS2_PLACEMENT_3D ( 'NONE', #235, #240, #245 ) ;
#8 = LINE ( 'NONE', #170, #56 ) ;
#9 = LINE ( 'NONE', #53, #21 ) ;
#10 = ADVANCED_FACE ( 'NONE', ( #160 ), #154, .F. ) ;
#11 = AXIS2_PLACEMENT_3D ( 'NONE', #117, #128, #137 ) ;
#12 = VERTEX_POINT ( 'NONE', #233 ) ;
#13 =( GEOMETRIC_REPRESENTATION_CONTEXT ( 3 ) GLOBAL_UNCERTAINTY_ASSIGNED_CONTEXT ( ( #71 ) ) GLOBAL_UNIT_ASSIGNED_CONTEXT ( ( #243, #238, #228 ) ) REPRESENTATION_CONTEXT ( 'NONE', 'WORKASPACE' ) );
#14 = CARTESIAN_POINT ( 'NONE',  ( 8.000000000000000000, 9.500000000000000000, 0.0000000000000000000 ) ) ;
#15 = EDGE_CURVE ( 'NONE', #122, #88, #42, .T. ) ;
#16 = ADVANCED_BREP_SHAPE_REPRESENTATION ( '096p0191604m4', ( #266, #61 ), #17 ) ;
#17 =( GEOMETRIC_REPRESENTATION_CONTEXT ( 3 ) GLOBAL_UNCERTAINTY_ASSIGNED_CONTEXT ( ( #163 ) ) GLOBAL_UNIT_ASSIGNED_CONTEXT ( ( #224, #223, #221 ) ) REPRESENTATION_CONTEXT ( 'NONE', 'WORKASPACE' ) );
#18 = CARTESIAN_POINT ( 'NONE',  ( 6.399999999999997700, 9.500000000000000000, 4.000000000000000000 ) ) ;
#19 = ORIENTED_EDGE ( 'NONE', *, *, #121, .T. ) ;
#20 = ORIENTED_EDGE ( 'NONE', *, *, #178, .F. ) ;
#21 = VECTOR ( 'NONE', #244, 1000.000000000000000 ) ;
#22 = VERTEX_POINT ( 'NONE', #169 ) ;
#23 = CARTESIAN_POINT ( 'NONE',  ( 8.000000000000000000, 9.500000000000000000, 0.0000000000000000000 ) ) ;
#24 = VECTOR ( 'NONE', #75, 1000.000000000000000 ) ;
#25 = PRESENTATION_LAYER_ASSIGNMENT (  '', '', ( #34 ) ) ;
#26 = DIRECTION ( 'NONE',  ( -1.000000000000000000, 0.0000000000000000000, -0.0000000000000000000 ) ) ;
#27 = MECHANICAL_DESIGN_GEOMETRIC_PRESENTATION_REPRESENTATION (  '', ( #34 ), #36 ) ;
#28 = EDGE_LOOP ( 'NONE', ( #193, #49, #276, #19 ) ) ;
#29 = ORIENTED_EDGE ( 'NONE', *, *, #92, .T. ) ;
#30 = AXIS2_PLACEMENT_3D ( 'NONE', #115, #215, #26 ) ;
#31 = ORIENTED_EDGE ( 'NONE', *, *, #66, .T. ) ;
#32 = EDGE_CURVE ( 'NONE', #95, #113, #259, .T. ) ;
#33 = COLOUR_RGB ( '',1.000000000000000000, 1.000000000000000000, 1.000000000000000000 ) ;
#34 = STYLED_ITEM ( 'NONE', ( #48 ), #16 ) ;
#35 = ORIENTED_EDGE ( 'NONE', *, *, #174, .T. ) ;
#36 =( GEOMETRIC_REPRESENTATION_CONTEXT ( 3 ) GLOBAL_UNCERTAINTY_ASSIGNED_CONTEXT ( ( #263 ) ) GLOBAL_UNIT_ASSIGNED_CONTEXT ( ( #200, #198, #197 ) ) REPRESENTATION_CONTEXT ( 'NONE', 'WORKASPACE' ) );
#37 = ORIENTED_EDGE ( 'NONE', *, *, #32, .F. ) ;
#38 = ORIENTED_EDGE ( 'NONE', *, *, #236, .F. ) ;
#39 = SURFACE_STYLE_FILL_AREA ( #272 ) ;
#40 = CYLINDRICAL_SURFACE ( 'NONE', #7, 1.600000000000001600 ) ;
#41 = AXIS2_PLACEMENT_3D ( 'NONE', #124, #155, #159 ) ;
#42 = LINE ( 'NONE', #107, #59 ) ;
#43 = DIRECTION ( 'NONE',  ( 1.000000000000000000, 0.0000000000000000000, 0.0000000000000000000 ) ) ;
#44 = ORIENTED_EDGE ( 'NONE', *, *, #182, .T. ) ;
#45 = DIRECTION ( 'NONE',  ( 1.000000000000000000, 0.0000000000000000000, 0.0000000000000000000 ) ) ;
#46 = CARTESIAN_POINT ( 'NONE',  ( 8.000000000000000000, 9.500000000000000000, 4.000000000000000000 ) ) ;
#47 = AXIS2_PLACEMENT_3D ( 'NONE', #85, #64, #45 ) ;
#48 = PRESENTATION_STYLE_ASSIGNMENT (( #201 ) ) ;
#49 = ORIENTED_EDGE ( 'NONE', *, *, #66, .F. ) ;
#50 = PRODUCT_DEFINITION_CONTEXT ( 'detailed design', #184, 'design' ) ;
#51 = EDGE_LOOP ( 'NONE', ( #199, #76, #99, #167 ) ) ;
#52 = AXIS2_PLACEMENT_3D ( 'NONE', #130, #134, #131 ) ;
#53 = CARTESIAN_POINT ( 'NONE',  ( 0.0000000000000000000, 0.0000000000000000000, 0.0000000000000000000 ) ) ;
#54 = DIRECTION ( 'NONE',  ( -0.0000000000000000000, -0.0000000000000000000, -1.000000000000000000 ) ) ;
#55 = CARTESIAN_POINT ( 'NONE',  ( 16.00000000000000000, 1.959370166115803600E-015, 4.000000000000000000 ) ) ;
#56 = VECTOR ( 'NONE', #191, 1000.000000000000000 ) ;
#57 = PRODUCT_DEFINITION_SHAPE ( 'NONE', 'NONE',  #68 ) ;
#58 = AXIS2_PLACEMENT_3D ( 'NONE', #274, #237, #151 ) ;
#59 = VECTOR ( 'NONE', #62, 1000.000000000000000 ) ;
#60 = PLANE ( 'NONE',  #30 ) ;
#61 = AXIS2_PLACEMENT_3D ( 'NONE', #226, #196, #189 ) ;
#62 = DIRECTION ( 'NONE',  ( 0.0000000000000000000, 1.000000000000000000, 0.0000000000000000000 ) ) ;
#63 = LINE ( 'NONE', #220, #119 ) ;
#64 = DIRECTION ( 'NONE',  ( 0.0000000000000000000, 0.0000000000000000000, 1.000000000000000000 ) ) ;
#65 = AXIS2_PLACEMENT_3D ( 'NONE', #14, #161, #267 ) ;
#66 = EDGE_CURVE ( 'NONE', #95, #132, #8, .T. ) ;
#67 = PLANE ( 'NONE',  #219 ) ;
#68 = PRODUCT_DEFINITION ( 'UNKNOWN', '', #96, #50 ) ;
#69 = FACE_OUTER_BOUND ( 'NONE', #156, .T. ) ;
#70 = CARTESIAN_POINT ( 'NONE',  ( 0.0000000000000000000, 0.0000000000000000000, 4.000000000000000000 ) ) ;
#71 = UNCERTAINTY_MEASURE_WITH_UNIT (LENGTH_MEASURE( 1.000000000000000100E-005 ), #243, 'distance_accuracy_value', 'NONE');
#72 = AXIS2_PLACEMENT_3D ( 'NONE', #147, #273, #103 ) ;
#73 = CARTESIAN_POINT ( 'NONE',  ( 6.399999999999997700, 9.500000000000000000, 0.0000000000000000000 ) ) ;
#74 = CLOSED_SHELL ( 'NONE', ( #1, #194, #203, #108, #10, #90, #120, #172 ) ) ;
#75 = DIRECTION ( 'NONE',  ( -0.0000000000000000000, -0.0000000000000000000, -1.000000000000000000 ) ) ;
#76 = ORIENTED_EDGE ( 'NONE', *, *, #236, .T. ) ;
#77 = VECTOR ( 'NONE', #270, 1000.000000000000000 ) ;
#78 = SURFACE_STYLE_FILL_AREA ( #205 ) ;
#79 = CARTESIAN_POINT ( 'NONE',  ( 16.00000000000000000, 19.00000000000000000, 4.000000000000000000 ) ) ;
#80 = CARTESIAN_POINT ( 'NONE',  ( 9.600000000000003200, 9.500000000000000000, 4.000000000000000000 ) ) ;
#81 = ORIENTED_EDGE ( 'NONE', *, *, #110, .F. ) ;
#82 = VECTOR ( 'NONE', #248, 1000.000000000000000 ) ;
#83 = ORIENTED_EDGE ( 'NONE', *, *, #101, .F. ) ;
#84 = CARTESIAN_POINT ( 'NONE',  ( 0.0000000000000000000, 0.0000000000000000000, 4.000000000000000000 ) ) ;
#85 = CARTESIAN_POINT ( 'NONE',  ( 8.000000000000000000, 9.500000000000000000, 4.000000000000000000 ) ) ;
#86 = EDGE_CURVE ( 'NONE', #88, #132, #125, .T. ) ;
#87 = ORIENTED_EDGE ( 'NONE', *, *, #129, .T. ) ;
#88 = VERTEX_POINT ( 'NONE', #171 ) ;
#89 = ORIENTED_EDGE ( 'NONE', *, *, #93, .F. ) ;
#90 = ADVANCED_FACE ( 'NONE', ( #275 ), #256, .F. ) ;
#91 = VECTOR ( 'NONE', #246, 1000.000000000000000 ) ;
#92 = EDGE_CURVE ( 'NONE', #140, #105, #173, .T. ) ;
#93 = EDGE_CURVE ( 'NONE', #22, #254, #118, .T. ) ;
#94 = PLANE ( 'NONE',  #11 ) ;
#95 = VERTEX_POINT ( 'NONE', #127 ) ;
#96 = PRODUCT_DEFINITION_FORMATION_WITH_SPECIFIED_SOURCE ( 'ANY', '', #180, .NOT_KNOWN. ) ;
#97 = ORIENTED_EDGE ( 'NONE', *, *, #174, .F. ) ;
#98 = LINE ( 'NONE', #229, #91 ) ;
#99 = ORIENTED_EDGE ( 'NONE', *, *, #106, .F. ) ;
#100 = EDGE_LOOP ( 'NONE', ( #247, #242, #217, #176 ) ) ;
#101 = EDGE_CURVE ( 'NONE', #105, #140, #2, .T. ) ;
#102 = CIRCLE ( 'NONE', #65, 1.600000000000002500 ) ;
#103 = DIRECTION ( 'NONE',  ( 0.0000000000000000000, 0.0000000000000000000, 1.000000000000000000 ) ) ;
#104 = CYLINDRICAL_SURFACE ( 'NONE', #52, 1.600000000000001600 ) ;
#105 = VERTEX_POINT ( 'NONE', #18 ) ;
#106 = EDGE_CURVE ( 'NONE', #254, #22, #102, .T. ) ;
#107 = CARTESIAN_POINT ( 'NONE',  ( 16.00000000000000000, 1.959370166115803600E-015, 0.0000000000000000000 ) ) ;
#108 = ADVANCED_FACE ( 'NONE', ( #69 ), #67, .F. ) ;
#109 = VECTOR ( 'NONE', #188, 1000.000000000000000 ) ;
#110 = EDGE_CURVE ( 'NONE', #249, #122, #179, .T. ) ;
#111 = FACE_OUTER_BOUND ( 'NONE', #51, .T. ) ;
#112 = PRODUCT_RELATED_PRODUCT_CATEGORY ( 'part', '', ( #180 ) ) ;
#113 = VERTEX_POINT ( 'NONE', #262 ) ;
#114 = PRESENTATION_STYLE_ASSIGNMENT (( #250 ) ) ;
#115 = CARTESIAN_POINT ( 'NONE',  ( 0.0000000000000000000, 19.00000000000000000, 0.0000000000000000000 ) ) ;
#116 = MECHANICAL_DESIGN_GEOMETRIC_PRESENTATION_REPRESENTATION (  '', ( #153 ), #13 ) ;
#117 = CARTESIAN_POINT ( 'NONE',  ( 0.0000000000000000000, 19.00000000000000000, 4.000000000000000000 ) ) ;
#118 = CIRCLE ( 'NONE', #158, 1.600000000000002500 ) ;
#119 = VECTOR ( 'NONE', #164, 1000.000000000000000 ) ;
#120 = ADVANCED_FACE ( 'NONE', ( #222 ), #258, .F. ) ;
#121 = EDGE_CURVE ( 'NONE', #12, #88, #3, .T. ) ;
#122 = VERTEX_POINT ( 'NONE', #225 ) ;
#123 = EDGE_CURVE ( 'NONE', #132, #192, #9, .T. ) ;
#124 = CARTESIAN_POINT ( 'NONE',  ( 0.0000000000000000000, 0.0000000000000000000, 4.000000000000000000 ) ) ;
#125 = LINE ( 'NONE', #227, #109 ) ;
#126 = FACE_OUTER_BOUND ( 'NONE', #190, .T. ) ;
#127 = CARTESIAN_POINT ( 'NONE',  ( 0.0000000000000000000, 19.00000000000000000, 4.000000000000000000 ) ) ;
#128 = DIRECTION ( 'NONE',  ( 0.0000000000000000000, 0.0000000000000000000, -1.000000000000000000 ) ) ;
#129 = EDGE_CURVE ( 'NONE', #105, #254, #234, .T. ) ;
#130 = CARTESIAN_POINT ( 'NONE',  ( 8.000000000000000000, 9.500000000000000000, 4.000000000000000000 ) ) ;
#131 = DIRECTION ( 'NONE',  ( -1.000000000000000000, 0.0000000000000000000, 0.0000000000000000000 ) ) ;
#132 = VERTEX_POINT ( 'NONE', #271 ) ;
#133 = FACE_BOUND ( 'NONE', #138, .T. ) ;
#134 = DIRECTION ( 'NONE',  ( -0.0000000000000000000, -0.0000000000000000000, -1.000000000000000000 ) ) ;
#135 = COLOUR_RGB ( '',1.000000000000000000, 1.000000000000000000, 1.000000000000000000 ) ;
#136 = CARTESIAN_POINT ( 'NONE',  ( 0.0000000000000000000, 0.0000000000000000000, 0.0000000000000000000 ) ) ;
#137 = DIRECTION ( 'NONE',  ( -1.000000000000000000, 0.0000000000000000000, -0.0000000000000000000 ) ) ;
#138 = EDGE_LOOP ( 'NONE', ( #212, #145 ) ) ;
#139 = ORIENTED_EDGE ( 'NONE', *, *, #144, .T. ) ;
#140 = VERTEX_POINT ( 'NONE', #218 ) ;
#141 = FACE_BOUND ( 'NONE', #255, .T. ) ;
#142 = SURFACE_SIDE_STYLE ('',( #39 ) ) ;
#143 = FILL_AREA_STYLE_COLOUR ( '', #33 ) ;
#144 = EDGE_CURVE ( 'NONE', #249, #12, #175, .T. ) ;
#145 = ORIENTED_EDGE ( 'NONE', *, *, #93, .T. ) ;
#146 = LINE ( 'NONE', #136, #166 ) ;
#147 = CARTESIAN_POINT ( 'NONE',  ( 16.00000000000000000, 1.959370166115803600E-015, 4.000000000000000000 ) ) ;
#148 = EDGE_LOOP ( 'NONE', ( #157, #35, #139, #44 ) ) ;
#149 = DIRECTION ( 'NONE',  ( -1.000000000000000000, -0.0000000000000000000, -0.0000000000000000000 ) ) ;
#150 = DIRECTION ( 'NONE',  ( -0.0000000000000000000, -1.000000000000000000, -0.0000000000000000000 ) ) ;
#151 = DIRECTION ( 'NONE',  ( 0.0000000000000000000, -0.0000000000000000000, -1.000000000000000000 ) ) ;
#152 = DIRECTION ( 'NONE',  ( 1.000000000000000000, 1.224606353822377300E-016, 0.0000000000000000000 ) ) ;
#153 = STYLED_ITEM ( 'NONE', ( #114 ), #266 ) ;
#154 = PLANE ( 'NONE',  #41 ) ;
#155 = DIRECTION ( 'NONE',  ( -1.224606353822377300E-016, 1.000000000000000000, 0.0000000000000000000 ) ) ;
#156 = EDGE_LOOP ( 'NONE', ( #211, #20, #37, #31 ) ) ;
#157 = ORIENTED_EDGE ( 'NONE', *, *, #32, .T. ) ;
#158 = AXIS2_PLACEMENT_3D ( 'NONE', #23, #214, #43 ) ;
#159 = DIRECTION ( 'NONE',  ( -1.000000000000000000, -1.224606353822377300E-016, 0.0000000000000000000 ) ) ;
#160 = FACE_OUTER_BOUND ( 'NONE', #269, .T. ) ;
#161 = DIRECTION ( 'NONE',  ( 0.0000000000000000000, 0.0000000000000000000, 1.000000000000000000 ) ) ;
#162 = PRESENTATION_LAYER_ASSIGNMENT (  '', '', ( #153 ) ) ;
#163 = UNCERTAINTY_MEASURE_WITH_UNIT (LENGTH_MEASURE( 1.000000000000000100E-005 ), #224, 'distance_accuracy_value', 'NONE');
#164 = DIRECTION ( 'NONE',  ( 1.000000000000000000, 1.224606353822377300E-016, 0.0000000000000000000 ) ) ;
#165 = CARTESIAN_POINT ( 'NONE',  ( 0.0000000000000000000, 19.00000000000000000, 4.000000000000000000 ) ) ;
#166 = VECTOR ( 'NONE', #152, 1000.000000000000000 ) ;
#167 = ORIENTED_EDGE ( 'NONE', *, *, #129, .F. ) ;
#168 = AXIS2_PLACEMENT_3D ( 'NONE', #46, #4, #5 ) ;
#169 = CARTESIAN_POINT ( 'NONE',  ( 9.600000000000003200, 9.500000000000000000, 0.0000000000000000000 ) ) ;
#170 = CARTESIAN_POINT ( 'NONE',  ( 0.0000000000000000000, 19.00000000000000000, 4.000000000000000000 ) ) ;
#171 = CARTESIAN_POINT ( 'NONE',  ( 16.00000000000000000, 19.00000000000000000, 0.0000000000000000000 ) ) ;
#172 = ADVANCED_FACE ( 'NONE', ( #126 ), #40, .F. ) ;
#173 = CIRCLE ( 'NONE', #47, 1.600000000000002500 ) ;
#174 = EDGE_CURVE ( 'NONE', #113, #249, #63, .T. ) ;
#175 = LINE ( 'NONE', #252, #241 ) ;
#176 = ORIENTED_EDGE ( 'NONE', *, *, #110, .T. ) ;
#177 = CARTESIAN_POINT ( 'NONE',  ( 0.0000000000000000000, 0.0000000000000000000, 0.0000000000000000000 ) ) ;
#178 = EDGE_CURVE ( 'NONE', #113, #192, #98, .T. ) ;
#179 = LINE ( 'NONE', #260, #213 ) ;
#180 = PRODUCT ( '096p0191604m4', '096p0191604m4', '', ( #185 ) ) ;
#181 = DIRECTION ( 'NONE',  ( 0.0000000000000000000, 1.000000000000000000, 0.0000000000000000000 ) ) ;
#182 = EDGE_CURVE ( 'NONE', #12, #95, #195, .T. ) ;
#183 = APPLICATION_PROTOCOL_DEFINITION ( 'draft international standard', 'automotive_design', 1998, #184 ) ;
#184 = APPLICATION_CONTEXT ( 'automotive_design' ) ;
#185 = PRODUCT_CONTEXT ( 'NONE', #208, 'mechanical' ) ;
#186 = ORIENTED_EDGE ( 'NONE', *, *, #92, .F. ) ;
#187 = FACE_OUTER_BOUND ( 'NONE', #261, .T. ) ;
#188 = DIRECTION ( 'NONE',  ( -1.000000000000000000, -0.0000000000000000000, -0.0000000000000000000 ) ) ;
#189 = DIRECTION ( 'NONE',  ( 1.000000000000000000, 0.0000000000000000000, 0.0000000000000000000 ) ) ;
#190 = EDGE_LOOP ( 'NONE', ( #38, #29, #87, #89 ) ) ;
#191 = DIRECTION ( 'NONE',  ( -0.0000000000000000000, -0.0000000000000000000, -1.000000000000000000 ) ) ;
#192 = VERTEX_POINT ( 'NONE', #177 ) ;
#193 = ORIENTED_EDGE ( 'NONE', *, *, #86, .T. ) ;
#194 = ADVANCED_FACE ( 'NONE', ( #253, #141 ), #94, .F. ) ;
#195 = LINE ( 'NONE', #165, #257 ) ;
#196 = DIRECTION ( 'NONE',  ( 0.0000000000000000000, 0.0000000000000000000, 1.000000000000000000 ) ) ;
#197 =( NAMED_UNIT ( * ) SI_UNIT ( $, .STERADIAN. ) SOLID_ANGLE_UNIT ( ) );
#198 =( NAMED_UNIT ( * ) PLANE_ANGLE_UNIT ( ) SI_UNIT ( $, .RADIAN. ) );
#199 = ORIENTED_EDGE ( 'NONE', *, *, #101, .T. ) ;
#200 =( LENGTH_UNIT ( ) NAMED_UNIT ( * ) SI_UNIT ( .MILLI., .METRE. ) );
#201 = SURFACE_STYLE_USAGE ( .BOTH. , #204 ) ;
#202 = LINE ( 'NONE', #80, #24 ) ;
#203 = ADVANCED_FACE ( 'NONE', ( #187, #133 ), #60, .T. ) ;
#204 = SURFACE_SIDE_STYLE ('',( #78 ) ) ;
#205 = FILL_AREA_STYLE ('',( #206 ) ) ;
#206 = FILL_AREA_STYLE_COLOUR ( '', #135 ) ;
#207 = ORIENTED_EDGE ( 'NONE', *, *, #123, .F. ) ;
#208 = APPLICATION_CONTEXT ( 'automotive_design' ) ;
#209 = ORIENTED_EDGE ( 'NONE', *, *, #15, .F. ) ;
#210 = CARTESIAN_POINT ( 'NONE',  ( 6.399999999999998600, 9.500000000000000000, 4.000000000000000000 ) ) ;
#211 = ORIENTED_EDGE ( 'NONE', *, *, #123, .T. ) ;
#212 = ORIENTED_EDGE ( 'NONE', *, *, #106, .T. ) ;
#213 = VECTOR ( 'NONE', #54, 1000.000000000000000 ) ;
#214 = DIRECTION ( 'NONE',  ( 0.0000000000000000000, 0.0000000000000000000, 1.000000000000000000 ) ) ;
#215 = DIRECTION ( 'NONE',  ( 0.0000000000000000000, 0.0000000000000000000, -1.000000000000000000 ) ) ;
#216 = APPLICATION_PROTOCOL_DEFINITION ( 'draft international standard', 'automotive_design', 1998, #208 ) ;
#217 = ORIENTED_EDGE ( 'NONE', *, *, #144, .F. ) ;
#218 = CARTESIAN_POINT ( 'NONE',  ( 9.600000000000003200, 9.500000000000000000, 4.000000000000000000 ) ) ;
#219 = AXIS2_PLACEMENT_3D ( 'NONE', #84, #265, #264 ) ;
#220 = CARTESIAN_POINT ( 'NONE',  ( 0.0000000000000000000, 0.0000000000000000000, 4.000000000000000000 ) ) ;
#221 =( NAMED_UNIT ( * ) SI_UNIT ( $, .STERADIAN. ) SOLID_ANGLE_UNIT ( ) );
#222 = FACE_OUTER_BOUND ( 'NONE', #28, .T. ) ;
#223 =( NAMED_UNIT ( * ) PLANE_ANGLE_UNIT ( ) SI_UNIT ( $, .RADIAN. ) );
#224 =( LENGTH_UNIT ( ) NAMED_UNIT ( * ) SI_UNIT ( .MILLI., .METRE. ) );
#225 = CARTESIAN_POINT ( 'NONE',  ( 16.00000000000000000, 1.959370166115803600E-015, 0.0000000000000000000 ) ) ;
#226 = CARTESIAN_POINT ( 'NONE',  ( 0.0000000000000000000, 0.0000000000000000000, 0.0000000000000000000 ) ) ;
#227 = CARTESIAN_POINT ( 'NONE',  ( 0.0000000000000000000, 19.00000000000000000, 0.0000000000000000000 ) ) ;
#228 =( NAMED_UNIT ( * ) SI_UNIT ( $, .STERADIAN. ) SOLID_ANGLE_UNIT ( ) );
#229 = CARTESIAN_POINT ( 'NONE',  ( 0.0000000000000000000, 0.0000000000000000000, 4.000000000000000000 ) ) ;
#230 = SHAPE_DEFINITION_REPRESENTATION ( #57, #16 ) ;
#231 = ORIENTED_EDGE ( 'NONE', *, *, #6, .T. ) ;
#232 = ORIENTED_EDGE ( 'NONE', *, *, #6, .F. ) ;
#233 = CARTESIAN_POINT ( 'NONE',  ( 16.00000000000000000, 19.00000000000000000, 4.000000000000000000 ) ) ;
#234 = LINE ( 'NONE', #210, #82 ) ;
#235 = CARTESIAN_POINT ( 'NONE',  ( 8.000000000000000000, 9.500000000000000000, 4.000000000000000000 ) ) ;
#236 = EDGE_CURVE ( 'NONE', #140, #22, #202, .T. ) ;
#237 = DIRECTION ( 'NONE',  ( 0.0000000000000000000, -1.000000000000000000, 0.0000000000000000000 ) ) ;
#238 =( NAMED_UNIT ( * ) PLANE_ANGLE_UNIT ( ) SI_UNIT ( $, .RADIAN. ) );
#239 = ORIENTED_EDGE ( 'NONE', *, *, #178, .T. ) ;
#240 = DIRECTION ( 'NONE',  ( -0.0000000000000000000, -0.0000000000000000000, -1.000000000000000000 ) ) ;
#241 = VECTOR ( 'NONE', #181, 1000.000000000000000 ) ;
#242 = ORIENTED_EDGE ( 'NONE', *, *, #121, .F. ) ;
#243 =( LENGTH_UNIT ( ) NAMED_UNIT ( * ) SI_UNIT ( .MILLI., .METRE. ) );
#244 = DIRECTION ( 'NONE',  ( -0.0000000000000000000, -1.000000000000000000, -0.0000000000000000000 ) ) ;
#245 = DIRECTION ( 'NONE',  ( -1.000000000000000000, 0.0000000000000000000, 0.0000000000000000000 ) ) ;
#246 = DIRECTION ( 'NONE',  ( -0.0000000000000000000, -0.0000000000000000000, -1.000000000000000000 ) ) ;
#247 = ORIENTED_EDGE ( 'NONE', *, *, #15, .T. ) ;
#248 = DIRECTION ( 'NONE',  ( -0.0000000000000000000, -0.0000000000000000000, -1.000000000000000000 ) ) ;
#249 = VERTEX_POINT ( 'NONE', #55 ) ;
#250 = SURFACE_STYLE_USAGE ( .BOTH. , #142 ) ;
#251 = ORIENTED_EDGE ( 'NONE', *, *, #86, .F. ) ;
#252 = CARTESIAN_POINT ( 'NONE',  ( 16.00000000000000000, 1.959370166115803600E-015, 4.000000000000000000 ) ) ;
#253 = FACE_OUTER_BOUND ( 'NONE', #148, .T. ) ;
#254 = VERTEX_POINT ( 'NONE', #73 ) ;
#255 = EDGE_LOOP ( 'NONE', ( #83, #186 ) ) ;
#256 = PLANE ( 'NONE',  #72 ) ;
#257 = VECTOR ( 'NONE', #149, 1000.000000000000000 ) ;
#258 = PLANE ( 'NONE',  #58 ) ;
#259 = LINE ( 'NONE', #70, #268 ) ;
#260 = CARTESIAN_POINT ( 'NONE',  ( 16.00000000000000000, 1.959370166115803600E-015, 4.000000000000000000 ) ) ;
#261 = EDGE_LOOP ( 'NONE', ( #207, #251, #209, #232 ) ) ;
#262 = CARTESIAN_POINT ( 'NONE',  ( 0.0000000000000000000, 0.0000000000000000000, 4.000000000000000000 ) ) ;
#263 = UNCERTAINTY_MEASURE_WITH_UNIT (LENGTH_MEASURE( 1.000000000000000100E-005 ), #200, 'distance_accuracy_value', 'NONE');
#264 = DIRECTION ( 'NONE',  ( 0.0000000000000000000, 0.0000000000000000000, -1.000000000000000000 ) ) ;
#265 = DIRECTION ( 'NONE',  ( 1.000000000000000000, 0.0000000000000000000, 0.0000000000000000000 ) ) ;
#266 = MANIFOLD_SOLID_BREP ( 'Basis-Linear austragen', #74 ) ;
#267 = DIRECTION ( 'NONE',  ( 1.000000000000000000, 0.0000000000000000000, 0.0000000000000000000 ) ) ;
#268 = VECTOR ( 'NONE', #150, 1000.000000000000000 ) ;
#269 = EDGE_LOOP ( 'NONE', ( #231, #81, #97, #239 ) ) ;
#270 = DIRECTION ( 'NONE',  ( -0.0000000000000000000, -0.0000000000000000000, -1.000000000000000000 ) ) ;
#271 = CARTESIAN_POINT ( 'NONE',  ( 0.0000000000000000000, 19.00000000000000000, 0.0000000000000000000 ) ) ;
#272 = FILL_AREA_STYLE ('',( #143 ) ) ;
#273 = DIRECTION ( 'NONE',  ( -1.000000000000000000, 0.0000000000000000000, 0.0000000000000000000 ) ) ;
#274 = CARTESIAN_POINT ( 'NONE',  ( 0.0000000000000000000, 19.00000000000000000, 4.000000000000000000 ) ) ;
#275 = FACE_OUTER_BOUND ( 'NONE', #100, .T. ) ;
#276 = ORIENTED_EDGE ( 'NONE', *, *, #182, .F. ) ;
ENDSEC;
END-ISO-10303-21;
