ISO-10303-21;
HEADER;
FILE_DESCRIPTION (( 'STEP AP214' ),
    '1' );
FILE_NAME ('096p0151005m6.STEP',
    '2014-08-18T12:30:11',
    ( '' ),
    ( '' ),
    'SwSTEP 2.0',
    'SolidWorks 2014',
    '' );
FILE_SCHEMA (( 'AUTOMOTIVE_DESIGN' ));
ENDSEC;

DATA;
#1 = VECTOR ( 'NONE', #90, 1000.000000000000000 ) ;
#2 = PRODUCT_DEFINITION_FORMATION_WITH_SPECIFIED_SOURCE ( 'ANY', '', #175, .NOT_KNOWN. ) ;
#3 = COLOUR_RGB ( '',0.5294117647058823600, 0.5490196078431373000, 0.5490196078431373000 ) ;
#4 = DIRECTION ( 'NONE',  ( 0.0000000000000000000, 0.0000000000000000000, 1.000000000000000000 ) ) ;
#5 = PRODUCT_DEFINITION ( 'UNKNOWN', '', #2, #180 ) ;
#6 = ORIENTED_EDGE ( 'NONE', *, *, #168, .T. ) ;
#7 = CARTESIAN_POINT ( 'NONE',  ( 0.0000000000000000000, 0.0000000000000000000, 0.0000000000000000000 ) ) ;
#8 = ORIENTED_EDGE ( 'NONE', *, *, #236, .T. ) ;
#9 = SHAPE_DEFINITION_REPRESENTATION ( #251, #227 ) ;
#10 = LINE ( 'NONE', #136, #266 ) ;
#11 = DIRECTION ( 'NONE',  ( -0.0000000000000000000, -0.0000000000000000000, -1.000000000000000000 ) ) ;
#12 = AXIS2_PLACEMENT_3D ( 'NONE', #7, #4, #172 ) ;
#13 = CARTESIAN_POINT ( 'NONE',  ( 10.00000000000000000, 1.224606353822377300E-015, 5.000000000000000000 ) ) ;
#14 = ORIENTED_EDGE ( 'NONE', *, *, #170, .T. ) ;
#15 = ADVANCED_FACE ( 'NONE', ( #169 ), #269, .F. ) ;
#16 = DIRECTION ( 'NONE',  ( -1.000000000000000000, 0.0000000000000000000, 0.0000000000000000000 ) ) ;
#17 = AXIS2_PLACEMENT_3D ( 'NONE', #113, #45, #42 ) ;
#18 = CARTESIAN_POINT ( 'NONE',  ( 5.000000000000000900, 7.500000000000000000, 5.000000000000000000 ) ) ;
#19 =( LENGTH_UNIT ( ) NAMED_UNIT ( * ) SI_UNIT ( .MILLI., .METRE. ) );
#20 = AXIS2_PLACEMENT_3D ( 'NONE', #216, #213, #212 ) ;
#21 = LINE ( 'NONE', #166, #274 ) ;
#22 =( NAMED_UNIT ( * ) SI_UNIT ( $, .STERADIAN. ) SOLID_ANGLE_UNIT ( ) );
#23 =( NAMED_UNIT ( * ) PLANE_ANGLE_UNIT ( ) SI_UNIT ( $, .RADIAN. ) );
#24 =( NAMED_UNIT ( * ) PLANE_ANGLE_UNIT ( ) SI_UNIT ( $, .RADIAN. ) );
#25 =( LENGTH_UNIT ( ) NAMED_UNIT ( * ) SI_UNIT ( .MILLI., .METRE. ) );
#26 = ORIENTED_EDGE ( 'NONE', *, *, #304, .F. ) ;
#27 =( NAMED_UNIT ( * ) SI_UNIT ( $, .STERADIAN. ) SOLID_ANGLE_UNIT ( ) );
#28 = LINE ( 'NONE', #165, #89 ) ;
#29 = ORIENTED_EDGE ( 'NONE', *, *, #236, .F. ) ;
#30 = FACE_OUTER_BOUND ( 'NONE', #126, .T. ) ;
#31 = MANIFOLD_SOLID_BREP ( 'Basis-Linear austragen', #250 ) ;
#32 = APPLICATION_PROTOCOL_DEFINITION ( 'draft international standard', 'automotive_design', 1998, #52 ) ;
#33 = VERTEX_POINT ( 'NONE', #289 ) ;
#34 = EDGE_CURVE ( 'NONE', #114, #163, #123, .T. ) ;
#35 = SURFACE_STYLE_USAGE ( .BOTH. , #37 ) ;
#36 = FACE_OUTER_BOUND ( 'NONE', #287, .T. ) ;
#37 = SURFACE_SIDE_STYLE ('',( #119 ) ) ;
#38 = CARTESIAN_POINT ( 'NONE',  ( 2.500000000000000400, 7.500000000000000000, 0.0000000000000000000 ) ) ;
#39 = FILL_AREA_STYLE_COLOUR ( '', #254 ) ;
#40 = ORIENTED_EDGE ( 'NONE', *, *, #159, .F. ) ;
#41 = FILL_AREA_STYLE ('',( #39 ) ) ;
#42 = DIRECTION ( 'NONE',  ( -1.000000000000000000, 0.0000000000000000000, -0.0000000000000000000 ) ) ;
#43 = CARTESIAN_POINT ( 'NONE',  ( 2.500000000000000400, 7.500000000000000000, 5.000000000000000000 ) ) ;
#44 = DIRECTION ( 'NONE',  ( -0.0000000000000000000, -0.0000000000000000000, -1.000000000000000000 ) ) ;
#45 = DIRECTION ( 'NONE',  ( 0.0000000000000000000, 0.0000000000000000000, -1.000000000000000000 ) ) ;
#46 = DIRECTION ( 'NONE',  ( -1.000000000000000000, 0.0000000000000000000, 0.0000000000000000000 ) ) ;
#47 = ORIENTED_EDGE ( 'NONE', *, *, #50, .F. ) ;
#48 = CARTESIAN_POINT ( 'NONE',  ( 5.000000000000000900, 7.500000000000000000, 5.000000000000000000 ) ) ;
#49 = VECTOR ( 'NONE', #11, 1000.000000000000000 ) ;
#50 = EDGE_CURVE ( 'NONE', #99, #284, #258, .T. ) ;
#51 = EDGE_LOOP ( 'NONE', ( #272, #167, #147, #8 ) ) ;
#52 = APPLICATION_CONTEXT ( 'automotive_design' ) ;
#53 = APPLICATION_CONTEXT ( 'automotive_design' ) ;
#54 = FACE_BOUND ( 'NONE', #277, .T. ) ;
#55 =( NAMED_UNIT ( * ) SI_UNIT ( $, .STERADIAN. ) SOLID_ANGLE_UNIT ( ) );
#56 =( NAMED_UNIT ( * ) PLANE_ANGLE_UNIT ( ) SI_UNIT ( $, .RADIAN. ) );
#57 = FACE_OUTER_BOUND ( 'NONE', #207, .T. ) ;
#58 = VECTOR ( 'NONE', #132, 1000.000000000000000 ) ;
#59 = SURFACE_STYLE_FILL_AREA ( #74 ) ;
#60 = ORIENTED_EDGE ( 'NONE', *, *, #92, .T. ) ;
#61 =( LENGTH_UNIT ( ) NAMED_UNIT ( * ) SI_UNIT ( .MILLI., .METRE. ) );
#62 = EDGE_LOOP ( 'NONE', ( #6, #65, #40, #14 ) ) ;
#63 = ADVANCED_FACE ( 'NONE', ( #189 ), #95, .F. ) ;
#64 = PLANE ( 'NONE',  #17 ) ;
#65 = ORIENTED_EDGE ( 'NONE', *, *, #273, .F. ) ;
#66 = CARTESIAN_POINT ( 'NONE',  ( 7.500000000000001800, 7.500000000000000000, 5.000000000000000000 ) ) ;
#67 = SURFACE_STYLE_USAGE ( .BOTH. , #69 ) ;
#68 = VECTOR ( 'NONE', #88, 1000.000000000000000 ) ;
#69 = SURFACE_SIDE_STYLE ('',( #202 ) ) ;
#70 = FILL_AREA_STYLE ('',( #102 ) ) ;
#71 = EDGE_LOOP ( 'NONE', ( #299, #293, #26, #72 ) ) ;
#72 = ORIENTED_EDGE ( 'NONE', *, *, #273, .T. ) ;
#73 = CIRCLE ( 'NONE', #219, 2.500000000000000400 ) ;
#74 = FILL_AREA_STYLE ('',( #224 ) ) ;
#75 = ORIENTED_EDGE ( 'NONE', *, *, #34, .F. ) ;
#76 = ORIENTED_EDGE ( 'NONE', *, *, #87, .T. ) ;
#77 = EDGE_CURVE ( 'NONE', #137, #276, #302, .T. ) ;
#78 = LINE ( 'NONE', #162, #149 ) ;
#79 = DIRECTION ( 'NONE',  ( 0.0000000000000000000, 1.000000000000000000, 0.0000000000000000000 ) ) ;
#80 = VECTOR ( 'NONE', #265, 1000.000000000000000 ) ;
#81 = DIRECTION ( 'NONE',  ( 0.0000000000000000000, -0.0000000000000000000, -1.000000000000000000 ) ) ;
#82 = DIRECTION ( 'NONE',  ( 0.0000000000000000000, -1.000000000000000000, 0.0000000000000000000 ) ) ;
#83 = ORIENTED_EDGE ( 'NONE', *, *, #168, .F. ) ;
#84 = CARTESIAN_POINT ( 'NONE',  ( 10.00000000000000000, 15.00000000000000000, 0.0000000000000000000 ) ) ;
#85 = ADVANCED_FACE ( 'NONE', ( #178, #54 ), #64, .F. ) ;
#86 = CARTESIAN_POINT ( 'NONE',  ( 7.500000000000001800, 7.500000000000000000, 0.0000000000000000000 ) ) ;
#87 = EDGE_CURVE ( 'NONE', #288, #296, #173, .T. ) ;
#88 = DIRECTION ( 'NONE',  ( -0.0000000000000000000, -0.0000000000000000000, -1.000000000000000000 ) ) ;
#89 = VECTOR ( 'NONE', #174, 1000.000000000000000 ) ;
#90 = DIRECTION ( 'NONE',  ( -1.000000000000000000, -0.0000000000000000000, -0.0000000000000000000 ) ) ;
#91 = ORIENTED_EDGE ( 'NONE', *, *, #170, .F. ) ;
#92 = EDGE_CURVE ( 'NONE', #135, #284, #116, .T. ) ;
#93 = CARTESIAN_POINT ( 'NONE',  ( 10.00000000000000000, 1.224606353822377300E-015, 5.000000000000000000 ) ) ;
#94 = ORIENTED_EDGE ( 'NONE', *, *, #77, .F. ) ;
#95 = PLANE ( 'NONE',  #134 ) ;
#96 = EDGE_CURVE ( 'NONE', #296, #276, #106, .T. ) ;
#97 = EDGE_CURVE ( 'NONE', #288, #137, #295, .T. ) ;
#98 = FACE_BOUND ( 'NONE', #223, .T. ) ;
#99 = VERTEX_POINT ( 'NONE', #243 ) ;
#100 = SURFACE_STYLE_USAGE ( .BOTH. , #247 ) ;
#101 = ORIENTED_EDGE ( 'NONE', *, *, #183, .F. ) ;
#102 = FILL_AREA_STYLE_COLOUR ( '', #186 ) ;
#103 = DIRECTION ( 'NONE',  ( -0.0000000000000000000, -0.0000000000000000000, -1.000000000000000000 ) ) ;
#104 = VERTEX_POINT ( 'NONE', #239 ) ;
#105 = DIRECTION ( 'NONE',  ( 0.0000000000000000000, 0.0000000000000000000, 1.000000000000000000 ) ) ;
#106 = CIRCLE ( 'NONE', #118, 2.500000000000000400 ) ;
#107 = DIRECTION ( 'NONE',  ( -1.000000000000000000, 0.0000000000000000000, 0.0000000000000000000 ) ) ;
#108 = ADVANCED_FACE ( 'NONE', ( #36, #98 ), #228, .T. ) ;
#109 = CARTESIAN_POINT ( 'NONE',  ( 0.0000000000000000000, 0.0000000000000000000, 5.000000000000000000 ) ) ;
#110 = EDGE_CURVE ( 'NONE', #33, #232, #222, .T. ) ;
#111 = CARTESIAN_POINT ( 'NONE',  ( 10.00000000000000000, 1.224606353822377300E-015, 5.000000000000000000 ) ) ;
#112 = PLANE ( 'NONE',  #305 ) ;
#113 = CARTESIAN_POINT ( 'NONE',  ( 0.0000000000000000000, 15.00000000000000000, 5.000000000000000000 ) ) ;
#114 = VERTEX_POINT ( 'NONE', #199 ) ;
#115 = DIRECTION ( 'NONE',  ( 1.000000000000000000, 0.0000000000000000000, 0.0000000000000000000 ) ) ;
#116 = LINE ( 'NONE', #301, #49 ) ;
#117 = DIRECTION ( 'NONE',  ( 0.0000000000000000000, 0.0000000000000000000, 1.000000000000000000 ) ) ;
#118 = AXIS2_PLACEMENT_3D ( 'NONE', #237, #234, #233 ) ;
#119 = SURFACE_STYLE_FILL_AREA ( #41 ) ;
#120 =( GEOMETRIC_REPRESENTATION_CONTEXT ( 3 ) GLOBAL_UNCERTAINTY_ASSIGNED_CONTEXT ( ( #193 ) ) GLOBAL_UNIT_ASSIGNED_CONTEXT ( ( #61, #56, #55 ) ) REPRESENTATION_CONTEXT ( 'NONE', 'WORKASPACE' ) );
#121 = PRESENTATION_LAYER_ASSIGNMENT (  '', '', ( #130 ) ) ;
#122 =( NAMED_UNIT ( * ) PLANE_ANGLE_UNIT ( ) SI_UNIT ( $, .RADIAN. ) );
#123 = LINE ( 'NONE', #283, #58 ) ;
#124 = CYLINDRICAL_SURFACE ( 'NONE', #306, 2.500000000000000400 ) ;
#125 = MECHANICAL_DESIGN_GEOMETRIC_PRESENTATION_REPRESENTATION (  '', ( #130 ), #133 ) ;
#126 = EDGE_LOOP ( 'NONE', ( #94, #261, #76, #290 ) ) ;
#127 = EDGE_CURVE ( 'NONE', #276, #296, #244, .T. ) ;
#128 = CARTESIAN_POINT ( 'NONE',  ( 5.000000000000000900, 7.500000000000000000, 5.000000000000000000 ) ) ;
#129 = CARTESIAN_POINT ( 'NONE',  ( 0.0000000000000000000, 15.00000000000000000, 5.000000000000000000 ) ) ;
#130 = STYLED_ITEM ( 'NONE', ( #235 ), #227 ) ;
#131 = FACE_OUTER_BOUND ( 'NONE', #71, .T. ) ;
#132 = DIRECTION ( 'NONE',  ( -0.0000000000000000000, -1.000000000000000000, -0.0000000000000000000 ) ) ;
#133 =( GEOMETRIC_REPRESENTATION_CONTEXT ( 3 ) GLOBAL_UNCERTAINTY_ASSIGNED_CONTEXT ( ( #152 ) ) GLOBAL_UNIT_ASSIGNED_CONTEXT ( ( #275, #122, #294 ) ) REPRESENTATION_CONTEXT ( 'NONE', 'WORKASPACE' ) );
#134 = AXIS2_PLACEMENT_3D ( 'NONE', #145, #82, #81 ) ;
#135 = VERTEX_POINT ( 'NONE', #203 ) ;
#136 = CARTESIAN_POINT ( 'NONE',  ( 0.0000000000000000000, 15.00000000000000000, 0.0000000000000000000 ) ) ;
#137 = VERTEX_POINT ( 'NONE', #184 ) ;
#138 = DIRECTION ( 'NONE',  ( -1.000000000000000000, -0.0000000000000000000, -0.0000000000000000000 ) ) ;
#139 = EDGE_CURVE ( 'NONE', #33, #114, #279, .T. ) ;
#140 = DIRECTION ( 'NONE',  ( -1.000000000000000000, -1.224606353822377300E-016, 0.0000000000000000000 ) ) ;
#141 = DIRECTION ( 'NONE',  ( -1.224606353822377300E-016, 1.000000000000000000, 0.0000000000000000000 ) ) ;
#142 = LINE ( 'NONE', #93, #68 ) ;
#143 = PRODUCT_RELATED_PRODUCT_CATEGORY ( 'part', '', ( #175 ) ) ;
#144 = CARTESIAN_POINT ( 'NONE',  ( 10.00000000000000000, 1.224606353822377300E-015, 0.0000000000000000000 ) ) ;
#145 = CARTESIAN_POINT ( 'NONE',  ( 0.0000000000000000000, 15.00000000000000000, 5.000000000000000000 ) ) ;
#146 = PLANE ( 'NONE',  #208 ) ;
#147 = ORIENTED_EDGE ( 'NONE', *, *, #304, .T. ) ;
#148 = AXIS2_PLACEMENT_3D ( 'NONE', #262, #268, #280 ) ;
#149 = VECTOR ( 'NONE', #156, 1000.000000000000000 ) ;
#150 = SURFACE_STYLE_FILL_AREA ( #240 ) ;
#151 = PRESENTATION_STYLE_ASSIGNMENT (( #35 ) ) ;
#152 = UNCERTAINTY_MEASURE_WITH_UNIT (LENGTH_MEASURE( 1.000000000000000100E-005 ), #275, 'distance_accuracy_value', 'NONE');
#153 = ORIENTED_EDGE ( 'NONE', *, *, #139, .F. ) ;
#154 = ORIENTED_EDGE ( 'NONE', *, *, #97, .T. ) ;
#155 = VECTOR ( 'NONE', #187, 1000.000000000000000 ) ;
#156 = DIRECTION ( 'NONE',  ( -0.0000000000000000000, -0.0000000000000000000, -1.000000000000000000 ) ) ;
#157 = ORIENTED_EDGE ( 'NONE', *, *, #77, .T. ) ;
#158 = DIRECTION ( 'NONE',  ( 1.000000000000000000, 1.224606353822377300E-016, 0.0000000000000000000 ) ) ;
#159 = EDGE_CURVE ( 'NONE', #232, #104, #28, .T. ) ;
#160 = ORIENTED_EDGE ( 'NONE', *, *, #139, .T. ) ;
#161 = CARTESIAN_POINT ( 'NONE',  ( 0.0000000000000000000, 0.0000000000000000000, 5.000000000000000000 ) ) ;
#162 = CARTESIAN_POINT ( 'NONE',  ( 0.0000000000000000000, 0.0000000000000000000, 5.000000000000000000 ) ) ;
#163 = VERTEX_POINT ( 'NONE', #164 ) ;
#164 = CARTESIAN_POINT ( 'NONE',  ( 0.0000000000000000000, 0.0000000000000000000, 0.0000000000000000000 ) ) ;
#165 = CARTESIAN_POINT ( 'NONE',  ( 0.0000000000000000000, 0.0000000000000000000, 5.000000000000000000 ) ) ;
#166 = CARTESIAN_POINT ( 'NONE',  ( 0.0000000000000000000, 0.0000000000000000000, 0.0000000000000000000 ) ) ;
#167 = ORIENTED_EDGE ( 'NONE', *, *, #159, .T. ) ;
#168 = EDGE_CURVE ( 'NONE', #163, #99, #21, .T. ) ;
#169 = FACE_OUTER_BOUND ( 'NONE', #192, .T. ) ;
#170 = EDGE_CURVE ( 'NONE', #232, #163, #78, .T. ) ;
#171 = ORIENTED_EDGE ( 'NONE', *, *, #204, .T. ) ;
#172 = DIRECTION ( 'NONE',  ( 1.000000000000000000, 0.0000000000000000000, 0.0000000000000000000 ) ) ;
#173 = LINE ( 'NONE', #260, #297 ) ;
#174 = DIRECTION ( 'NONE',  ( 1.000000000000000000, 1.224606353822377300E-016, 0.0000000000000000000 ) ) ;
#175 = PRODUCT ( '096p0151005m6', '096p0151005m6', '', ( #195 ) ) ;
#176 = DIRECTION ( 'NONE',  ( 1.000000000000000000, 0.0000000000000000000, 0.0000000000000000000 ) ) ;
#177 = DIRECTION ( 'NONE',  ( 0.0000000000000000000, 0.0000000000000000000, 1.000000000000000000 ) ) ;
#178 = FACE_OUTER_BOUND ( 'NONE', #51, .T. ) ;
#179 = CARTESIAN_POINT ( 'NONE',  ( 5.000000000000000900, 7.500000000000000000, 0.0000000000000000000 ) ) ;
#180 = PRODUCT_DEFINITION_CONTEXT ( 'detailed design', #53, 'design' ) ;
#181 = ADVANCED_FACE ( 'NONE', ( #286 ), #146, .F. ) ;
#182 = CARTESIAN_POINT ( 'NONE',  ( 0.0000000000000000000, 15.00000000000000000, 5.000000000000000000 ) ) ;
#183 = EDGE_CURVE ( 'NONE', #137, #288, #73, .T. ) ;
#184 = CARTESIAN_POINT ( 'NONE',  ( 7.500000000000001800, 7.500000000000000000, 5.000000000000000000 ) ) ;
#185 = DIRECTION ( 'NONE',  ( -0.0000000000000000000, -0.0000000000000000000, -1.000000000000000000 ) ) ;
#186 = COLOUR_RGB ( '',1.000000000000000000, 1.000000000000000000, 1.000000000000000000 ) ;
#187 = DIRECTION ( 'NONE',  ( -0.0000000000000000000, -1.000000000000000000, -0.0000000000000000000 ) ) ;
#188 = PRESENTATION_LAYER_ASSIGNMENT (  '', '', ( #196 ) ) ;
#189 = FACE_OUTER_BOUND ( 'NONE', #197, .T. ) ;
#190 = LINE ( 'NONE', #13, #282 ) ;
#191 = CARTESIAN_POINT ( 'NONE',  ( 0.0000000000000000000, 0.0000000000000000000, 5.000000000000000000 ) ) ;
#192 = EDGE_LOOP ( 'NONE', ( #218, #91, #267, #160 ) ) ;
#193 = UNCERTAINTY_MEASURE_WITH_UNIT (LENGTH_MEASURE( 1.000000000000000100E-005 ), #61, 'distance_accuracy_value', 'NONE');
#194 = LINE ( 'NONE', #129, #1 ) ;
#195 = PRODUCT_CONTEXT ( 'NONE', #52, 'mechanical' ) ;
#196 = STYLED_ITEM ( 'NONE', ( #300 ), #285 ) ;
#197 = EDGE_LOOP ( 'NONE', ( #171, #153, #29, #60 ) ) ;
#198 = MECHANICAL_DESIGN_GEOMETRIC_PRESENTATION_REPRESENTATION (  '', ( #196 ), #120 ) ;
#199 = CARTESIAN_POINT ( 'NONE',  ( 0.0000000000000000000, 15.00000000000000000, 0.0000000000000000000 ) ) ;
#200 = UNCERTAINTY_MEASURE_WITH_UNIT (LENGTH_MEASURE( 1.000000000000000100E-005 ), #25, 'distance_accuracy_value', 'NONE');
#201 =( NAMED_UNIT ( * ) SI_UNIT ( $, .STERADIAN. ) SOLID_ANGLE_UNIT ( ) );
#202 = SURFACE_STYLE_FILL_AREA ( #70 ) ;
#203 = CARTESIAN_POINT ( 'NONE',  ( 10.00000000000000000, 15.00000000000000000, 5.000000000000000000 ) ) ;
#204 = EDGE_CURVE ( 'NONE', #284, #114, #10, .T. ) ;
#205 = DIRECTION ( 'NONE',  ( -1.000000000000000000, 0.0000000000000000000, -0.0000000000000000000 ) ) ;
#206 =( NAMED_UNIT ( * ) PLANE_ANGLE_UNIT ( ) SI_UNIT ( $, .RADIAN. ) );
#207 = EDGE_LOOP ( 'NONE', ( #154, #157, #225, #270 ) ) ;
#208 = AXIS2_PLACEMENT_3D ( 'NONE', #161, #141, #140 ) ;
#209 = ADVANCED_FACE ( 'NONE', ( #131 ), #112, .F. ) ;
#210 = DIRECTION ( 'NONE',  ( 0.0000000000000000000, 0.0000000000000000000, -1.000000000000000000 ) ) ;
#211 = VECTOR ( 'NONE', #185, 1000.000000000000000 ) ;
#212 = DIRECTION ( 'NONE',  ( 1.000000000000000000, 0.0000000000000000000, 0.0000000000000000000 ) ) ;
#213 = DIRECTION ( 'NONE',  ( 0.0000000000000000000, 0.0000000000000000000, 1.000000000000000000 ) ) ;
#214 = COLOUR_RGB ( '',0.5294117647058823600, 0.5490196078431373000, 0.5490196078431373000 ) ;
#215 = CYLINDRICAL_SURFACE ( 'NONE', #278, 2.500000000000000400 ) ;
#216 = CARTESIAN_POINT ( 'NONE',  ( 5.000000000000000900, 7.500000000000000000, 5.000000000000000000 ) ) ;
#217 =( LENGTH_UNIT ( ) NAMED_UNIT ( * ) SI_UNIT ( .MILLI., .METRE. ) );
#218 = ORIENTED_EDGE ( 'NONE', *, *, #34, .T. ) ;
#219 = AXIS2_PLACEMENT_3D ( 'NONE', #128, #117, #115 ) ;
#220 = ORIENTED_EDGE ( 'NONE', *, *, #96, .T. ) ;
#221 = AXIS2_PLACEMENT_3D ( 'NONE', #229, #210, #205 ) ;
#222 = LINE ( 'NONE', #191, #155 ) ;
#223 = EDGE_LOOP ( 'NONE', ( #220, #242 ) ) ;
#224 = FILL_AREA_STYLE_COLOUR ( '', #3 ) ;
#225 = ORIENTED_EDGE ( 'NONE', *, *, #96, .F. ) ;
#226 = APPLICATION_PROTOCOL_DEFINITION ( 'draft international standard', 'automotive_design', 1998, #53 ) ;
#227 = ADVANCED_BREP_SHAPE_REPRESENTATION ( '096p0151005m6', ( #31, #12 ), #303 ) ;
#228 = PLANE ( 'NONE',  #221 ) ;
#229 = CARTESIAN_POINT ( 'NONE',  ( 0.0000000000000000000, 15.00000000000000000, 0.0000000000000000000 ) ) ;
#230 = SURFACE_STYLE_USAGE ( .BOTH. , #231 ) ;
#231 = SURFACE_SIDE_STYLE ('',( #150 ) ) ;
#232 = VERTEX_POINT ( 'NONE', #109 ) ;
#233 = DIRECTION ( 'NONE',  ( 1.000000000000000000, 0.0000000000000000000, 0.0000000000000000000 ) ) ;
#234 = DIRECTION ( 'NONE',  ( 0.0000000000000000000, 0.0000000000000000000, 1.000000000000000000 ) ) ;
#235 = PRESENTATION_STYLE_ASSIGNMENT (( #100 ) ) ;
#236 = EDGE_CURVE ( 'NONE', #135, #33, #194, .T. ) ;
#237 = CARTESIAN_POINT ( 'NONE',  ( 5.000000000000000900, 7.500000000000000000, 0.0000000000000000000 ) ) ;
#238 = PRESENTATION_LAYER_ASSIGNMENT (  '', '', ( #245 ) ) ;
#239 = CARTESIAN_POINT ( 'NONE',  ( 10.00000000000000000, 1.224606353822377300E-015, 5.000000000000000000 ) ) ;
#240 = FILL_AREA_STYLE ('',( #241 ) ) ;
#241 = FILL_AREA_STYLE_COLOUR ( '', #214 ) ;
#242 = ORIENTED_EDGE ( 'NONE', *, *, #127, .T. ) ;
#243 = CARTESIAN_POINT ( 'NONE',  ( 10.00000000000000000, 1.224606353822377300E-015, 0.0000000000000000000 ) ) ;
#244 = CIRCLE ( 'NONE', #252, 2.500000000000000400 ) ;
#245 = STYLED_ITEM ( 'NONE', ( #151 ), #298 ) ;
#246 = MECHANICAL_DESIGN_GEOMETRIC_PRESENTATION_REPRESENTATION (  '', ( #245 ), #255 ) ;
#247 = SURFACE_SIDE_STYLE ('',( #59 ) ) ;
#248 = VECTOR ( 'NONE', #103, 1000.000000000000000 ) ;
#249 = MECHANICAL_DESIGN_GEOMETRIC_PRESENTATION_REPRESENTATION (  '', ( #271 ), #291 ) ;
#250 = CLOSED_SHELL ( 'NONE', ( #285, #85, #108, #15, #181, #209, #63, #298 ) ) ;
#251 = PRODUCT_DEFINITION_SHAPE ( 'NONE', 'NONE',  #5 ) ;
#252 = AXIS2_PLACEMENT_3D ( 'NONE', #179, #177, #176 ) ;
#253 = DIRECTION ( 'NONE',  ( -0.0000000000000000000, -0.0000000000000000000, -1.000000000000000000 ) ) ;
#254 = COLOUR_RGB ( '',1.000000000000000000, 1.000000000000000000, 1.000000000000000000 ) ;
#255 =( GEOMETRIC_REPRESENTATION_CONTEXT ( 3 ) GLOBAL_UNCERTAINTY_ASSIGNED_CONTEXT ( ( #200 ) ) GLOBAL_UNIT_ASSIGNED_CONTEXT ( ( #25, #24, #22 ) ) REPRESENTATION_CONTEXT ( 'NONE', 'WORKASPACE' ) );
#256 = UNCERTAINTY_MEASURE_WITH_UNIT (LENGTH_MEASURE( 1.000000000000000100E-005 ), #19, 'distance_accuracy_value', 'NONE');
#257 = PRESENTATION_LAYER_ASSIGNMENT (  '', '', ( #271 ) ) ;
#258 = LINE ( 'NONE', #144, #80 ) ;
#259 = DIRECTION ( 'NONE',  ( -0.0000000000000000000, -0.0000000000000000000, -1.000000000000000000 ) ) ;
#260 = CARTESIAN_POINT ( 'NONE',  ( 2.500000000000000400, 7.500000000000000000, 5.000000000000000000 ) ) ;
#261 = ORIENTED_EDGE ( 'NONE', *, *, #183, .T. ) ;
#262 = CARTESIAN_POINT ( 'NONE',  ( 0.0000000000000000000, 0.0000000000000000000, 5.000000000000000000 ) ) ;
#263 = ORIENTED_EDGE ( 'NONE', *, *, #97, .F. ) ;
#264 = ORIENTED_EDGE ( 'NONE', *, *, #204, .F. ) ;
#265 = DIRECTION ( 'NONE',  ( 0.0000000000000000000, 1.000000000000000000, 0.0000000000000000000 ) ) ;
#266 = VECTOR ( 'NONE', #138, 1000.000000000000000 ) ;
#267 = ORIENTED_EDGE ( 'NONE', *, *, #110, .F. ) ;
#268 = DIRECTION ( 'NONE',  ( 1.000000000000000000, 0.0000000000000000000, 0.0000000000000000000 ) ) ;
#269 = PLANE ( 'NONE',  #148 ) ;
#270 = ORIENTED_EDGE ( 'NONE', *, *, #87, .F. ) ;
#271 = STYLED_ITEM ( 'NONE', ( #281 ), #31 ) ;
#272 = ORIENTED_EDGE ( 'NONE', *, *, #110, .T. ) ;
#273 = EDGE_CURVE ( 'NONE', #104, #99, #142, .T. ) ;
#274 = VECTOR ( 'NONE', #158, 1000.000000000000000 ) ;
#275 =( LENGTH_UNIT ( ) NAMED_UNIT ( * ) SI_UNIT ( .MILLI., .METRE. ) );
#276 = VERTEX_POINT ( 'NONE', #86 ) ;
#277 = EDGE_LOOP ( 'NONE', ( #263, #101 ) ) ;
#278 = AXIS2_PLACEMENT_3D ( 'NONE', #48, #253, #46 ) ;
#279 = LINE ( 'NONE', #182, #211 ) ;
#280 = DIRECTION ( 'NONE',  ( 0.0000000000000000000, 0.0000000000000000000, -1.000000000000000000 ) ) ;
#281 = PRESENTATION_STYLE_ASSIGNMENT (( #230 ) ) ;
#282 = VECTOR ( 'NONE', #79, 1000.000000000000000 ) ;
#283 = CARTESIAN_POINT ( 'NONE',  ( 0.0000000000000000000, 0.0000000000000000000, 0.0000000000000000000 ) ) ;
#284 = VERTEX_POINT ( 'NONE', #84 ) ;
#285 = ADVANCED_FACE ( 'NONE', ( #57 ), #215, .F. ) ;
#286 = FACE_OUTER_BOUND ( 'NONE', #62, .T. ) ;
#287 = EDGE_LOOP ( 'NONE', ( #75, #264, #47, #83 ) ) ;
#288 = VERTEX_POINT ( 'NONE', #43 ) ;
#289 = CARTESIAN_POINT ( 'NONE',  ( 0.0000000000000000000, 15.00000000000000000, 5.000000000000000000 ) ) ;
#290 = ORIENTED_EDGE ( 'NONE', *, *, #127, .F. ) ;
#291 =( GEOMETRIC_REPRESENTATION_CONTEXT ( 3 ) GLOBAL_UNCERTAINTY_ASSIGNED_CONTEXT ( ( #292 ) ) GLOBAL_UNIT_ASSIGNED_CONTEXT ( ( #217, #206, #201 ) ) REPRESENTATION_CONTEXT ( 'NONE', 'WORKASPACE' ) );
#292 = UNCERTAINTY_MEASURE_WITH_UNIT (LENGTH_MEASURE( 1.000000000000000100E-005 ), #217, 'distance_accuracy_value', 'NONE');
#293 = ORIENTED_EDGE ( 'NONE', *, *, #92, .F. ) ;
#294 =( NAMED_UNIT ( * ) SI_UNIT ( $, .STERADIAN. ) SOLID_ANGLE_UNIT ( ) );
#295 = CIRCLE ( 'NONE', #20, 2.500000000000000400 ) ;
#296 = VERTEX_POINT ( 'NONE', #38 ) ;
#297 = VECTOR ( 'NONE', #259, 1000.000000000000000 ) ;
#298 = ADVANCED_FACE ( 'NONE', ( #30 ), #124, .F. ) ;
#299 = ORIENTED_EDGE ( 'NONE', *, *, #50, .T. ) ;
#300 = PRESENTATION_STYLE_ASSIGNMENT (( #67 ) ) ;
#301 = CARTESIAN_POINT ( 'NONE',  ( 10.00000000000000000, 15.00000000000000000, 5.000000000000000000 ) ) ;
#302 = LINE ( 'NONE', #66, #248 ) ;
#303 =( GEOMETRIC_REPRESENTATION_CONTEXT ( 3 ) GLOBAL_UNCERTAINTY_ASSIGNED_CONTEXT ( ( #256 ) ) GLOBAL_UNIT_ASSIGNED_CONTEXT ( ( #19, #23, #27 ) ) REPRESENTATION_CONTEXT ( 'NONE', 'WORKASPACE' ) );
#304 = EDGE_CURVE ( 'NONE', #104, #135, #190, .T. ) ;
#305 = AXIS2_PLACEMENT_3D ( 'NONE', #111, #107, #105 ) ;
#306 = AXIS2_PLACEMENT_3D ( 'NONE', #18, #44, #16 ) ;
ENDSEC;
END-ISO-10303-21;
