ISO-10303-21;
HEADER;
FILE_DESCRIPTION (( 'STEP AP214' ),
    '1' );
FILE_NAME ('096p0151004m6.STEP',
    '2014-08-18T12:28:49',
    ( '' ),
    ( '' ),
    'SwSTEP 2.0',
    'SolidWorks 2014',
    '' );
FILE_SCHEMA (( 'AUTOMOTIVE_DESIGN' ));
ENDSEC;

DATA;
#1 = AXIS2_PLACEMENT_3D ( 'NONE', #269, #132, #112 ) ;
#2 = DIRECTION ( 'NONE',  ( 0.0000000000000000000, 0.0000000000000000000, 1.000000000000000000 ) ) ;
#3 = CARTESIAN_POINT ( 'NONE',  ( 5.000000000000000900, 7.500000000000000000, 4.000000000000000000 ) ) ;
#4 = EDGE_LOOP ( 'NONE', ( #9, #95 ) ) ;
#5 = ORIENTED_EDGE ( 'NONE', *, *, #124, .T. ) ;
#6 = ADVANCED_BREP_SHAPE_REPRESENTATION ( '096p0151004m6', ( #204, #233 ), #258 ) ;
#7 = DIRECTION ( 'NONE',  ( 1.000000000000000000, 1.224606353822377300E-016, 0.0000000000000000000 ) ) ;
#8 = ADVANCED_FACE ( 'NONE', ( #211 ), #16, .F. ) ;
#9 = ORIENTED_EDGE ( 'NONE', *, *, #128, .T. ) ;
#10 = CARTESIAN_POINT ( 'NONE',  ( 0.0000000000000000000, 0.0000000000000000000, 4.000000000000000000 ) ) ;
#11 = VECTOR ( 'NONE', #149, 1000.000000000000000 ) ;
#12 = AXIS2_PLACEMENT_3D ( 'NONE', #262, #247, #186 ) ;
#13 = ORIENTED_EDGE ( 'NONE', *, *, #117, .T. ) ;
#14 =( NAMED_UNIT ( * ) PLANE_ANGLE_UNIT ( ) SI_UNIT ( $, .RADIAN. ) );
#15 = ORIENTED_EDGE ( 'NONE', *, *, #63, .T. ) ;
#16 = CYLINDRICAL_SURFACE ( 'NONE', #51, 2.500000000000000400 ) ;
#17 = STYLED_ITEM ( 'NONE', ( #178 ), #204 ) ;
#18 = AXIS2_PLACEMENT_3D ( 'NONE', #3, #2, #266 ) ;
#19 = DIRECTION ( 'NONE',  ( 1.000000000000000000, 0.0000000000000000000, 0.0000000000000000000 ) ) ;
#20 = CYLINDRICAL_SURFACE ( 'NONE', #12, 2.500000000000000400 ) ;
#21 = DIRECTION ( 'NONE',  ( 0.0000000000000000000, 0.0000000000000000000, 1.000000000000000000 ) ) ;
#22 = CARTESIAN_POINT ( 'NONE',  ( 5.000000000000000900, 7.500000000000000000, 0.0000000000000000000 ) ) ;
#23 = ORIENTED_EDGE ( 'NONE', *, *, #106, .F. ) ;
#24 = AXIS2_PLACEMENT_3D ( 'NONE', #49, #47, #46 ) ;
#25 = DIRECTION ( 'NONE',  ( -0.0000000000000000000, -1.000000000000000000, -0.0000000000000000000 ) ) ;
#26 = AXIS2_PLACEMENT_3D ( 'NONE', #22, #21, #19 ) ;
#27 = LINE ( 'NONE', #205, #192 ) ;
#28 = DIRECTION ( 'NONE',  ( -0.0000000000000000000, -0.0000000000000000000, -1.000000000000000000 ) ) ;
#29 = ADVANCED_FACE ( 'NONE', ( #231 ), #179, .F. ) ;
#30 = CARTESIAN_POINT ( 'NONE',  ( 7.500000000000001800, 7.500000000000000000, 4.000000000000000000 ) ) ;
#31 = VERTEX_POINT ( 'NONE', #170 ) ;
#32 = AXIS2_PLACEMENT_3D ( 'NONE', #93, #91, #89 ) ;
#33 = AXIS2_PLACEMENT_3D ( 'NONE', #167, #161, #159 ) ;
#34 = LINE ( 'NONE', #30, #43 ) ;
#35 = ORIENTED_EDGE ( 'NONE', *, *, #63, .F. ) ;
#36 = DIRECTION ( 'NONE',  ( 1.000000000000000000, 0.0000000000000000000, 0.0000000000000000000 ) ) ;
#37 = ORIENTED_EDGE ( 'NONE', *, *, #160, .F. ) ;
#38 = PRESENTATION_STYLE_ASSIGNMENT (( #242 ) ) ;
#39 = AXIS2_PLACEMENT_3D ( 'NONE', #143, #140, #137 ) ;
#40 =( LENGTH_UNIT ( ) NAMED_UNIT ( * ) SI_UNIT ( .MILLI., .METRE. ) );
#41 = AXIS2_PLACEMENT_3D ( 'NONE', #176, #227, #169 ) ;
#42 = CARTESIAN_POINT ( 'NONE',  ( 2.500000000000000400, 7.500000000000000000, 4.000000000000000000 ) ) ;
#43 = VECTOR ( 'NONE', #28, 1000.000000000000000 ) ;
#44 = CARTESIAN_POINT ( 'NONE',  ( 0.0000000000000000000, 0.0000000000000000000, 4.000000000000000000 ) ) ;
#45 = ORIENTED_EDGE ( 'NONE', *, *, #82, .F. ) ;
#46 = DIRECTION ( 'NONE',  ( 0.0000000000000000000, 0.0000000000000000000, 1.000000000000000000 ) ) ;
#47 = DIRECTION ( 'NONE',  ( -1.000000000000000000, 0.0000000000000000000, 0.0000000000000000000 ) ) ;
#48 = LINE ( 'NONE', #99, #261 ) ;
#49 = CARTESIAN_POINT ( 'NONE',  ( 10.00000000000000000, 1.224606353822377300E-015, 4.000000000000000000 ) ) ;
#50 = ADVANCED_FACE ( 'NONE', ( #225 ), #168, .F. ) ;
#51 = AXIS2_PLACEMENT_3D ( 'NONE', #172, #193, #174 ) ;
#52 = DIRECTION ( 'NONE',  ( -0.0000000000000000000, -0.0000000000000000000, -1.000000000000000000 ) ) ;
#53 = PLANE ( 'NONE',  #24 ) ;
#54 = VECTOR ( 'NONE', #71, 1000.000000000000000 ) ;
#55 = CARTESIAN_POINT ( 'NONE',  ( 0.0000000000000000000, 0.0000000000000000000, 4.000000000000000000 ) ) ;
#56 = DIRECTION ( 'NONE',  ( -1.000000000000000000, 0.0000000000000000000, -0.0000000000000000000 ) ) ;
#57 = VERTEX_POINT ( 'NONE', #164 ) ;
#58 = LINE ( 'NONE', #73, #54 ) ;
#59 = CARTESIAN_POINT ( 'NONE',  ( 0.0000000000000000000, 15.00000000000000000, 0.0000000000000000000 ) ) ;
#60 = CARTESIAN_POINT ( 'NONE',  ( 2.500000000000000400, 7.500000000000000000, 4.000000000000000000 ) ) ;
#61 = SURFACE_STYLE_USAGE ( .BOTH. , #92 ) ;
#62 = DIRECTION ( 'NONE',  ( -0.0000000000000000000, -0.0000000000000000000, -1.000000000000000000 ) ) ;
#63 = EDGE_CURVE ( 'NONE', #188, #232, #76, .T. ) ;
#64 = EDGE_LOOP ( 'NONE', ( #87, #177, #175, #241 ) ) ;
#65 = CARTESIAN_POINT ( 'NONE',  ( 10.00000000000000000, 15.00000000000000000, 4.000000000000000000 ) ) ;
#66 = VERTEX_POINT ( 'NONE', #146 ) ;
#67 = VECTOR ( 'NONE', #134, 1000.000000000000000 ) ;
#68 = EDGE_LOOP ( 'NONE', ( #127, #230, #45, #77 ) ) ;
#69 = DIRECTION ( 'NONE',  ( -0.0000000000000000000, -0.0000000000000000000, -1.000000000000000000 ) ) ;
#70 = EDGE_CURVE ( 'NONE', #66, #156, #130, .T. ) ;
#71 = DIRECTION ( 'NONE',  ( -0.0000000000000000000, -0.0000000000000000000, -1.000000000000000000 ) ) ;
#72 = VERTEX_POINT ( 'NONE', #157 ) ;
#73 = CARTESIAN_POINT ( 'NONE',  ( 0.0000000000000000000, 15.00000000000000000, 4.000000000000000000 ) ) ;
#74 = FACE_BOUND ( 'NONE', #252, .T. ) ;
#75 = ORIENTED_EDGE ( 'NONE', *, *, #111, .T. ) ;
#76 = CIRCLE ( 'NONE', #39, 2.500000000000000400 ) ;
#77 = ORIENTED_EDGE ( 'NONE', *, *, #84, .F. ) ;
#78 = EDGE_CURVE ( 'NONE', #207, #66, #181, .T. ) ;
#79 = DIRECTION ( 'NONE',  ( 0.0000000000000000000, 0.0000000000000000000, -1.000000000000000000 ) ) ;
#80 = VERTEX_POINT ( 'NONE', #120 ) ;
#81 = PRODUCT_DEFINITION_CONTEXT ( 'detailed design', #218, 'design' ) ;
#82 = EDGE_CURVE ( 'NONE', #195, #207, #171, .T. ) ;
#83 = CARTESIAN_POINT ( 'NONE',  ( 2.500000000000000400, 7.500000000000000000, 0.0000000000000000000 ) ) ;
#84 = EDGE_CURVE ( 'NONE', #156, #195, #216, .T. ) ;
#85 = CARTESIAN_POINT ( 'NONE',  ( 10.00000000000000000, 15.00000000000000000, 0.0000000000000000000 ) ) ;
#86 = FACE_OUTER_BOUND ( 'NONE', #148, .T. ) ;
#87 = ORIENTED_EDGE ( 'NONE', *, *, #70, .T. ) ;
#88 =( NAMED_UNIT ( * ) SI_UNIT ( $, .STERADIAN. ) SOLID_ANGLE_UNIT ( ) );
#89 = DIRECTION ( 'NONE',  ( 1.000000000000000000, 0.0000000000000000000, 0.0000000000000000000 ) ) ;
#90 = VECTOR ( 'NONE', #25, 1000.000000000000000 ) ;
#91 = DIRECTION ( 'NONE',  ( 0.0000000000000000000, 0.0000000000000000000, 1.000000000000000000 ) ) ;
#92 = SURFACE_SIDE_STYLE ('',( #136 ) ) ;
#93 = CARTESIAN_POINT ( 'NONE',  ( 5.000000000000000900, 7.500000000000000000, 0.0000000000000000000 ) ) ;
#94 = ORIENTED_EDGE ( 'NONE', *, *, #131, .T. ) ;
#95 = ORIENTED_EDGE ( 'NONE', *, *, #98, .T. ) ;
#96 = DIRECTION ( 'NONE',  ( -0.0000000000000000000, -0.0000000000000000000, -1.000000000000000000 ) ) ;
#97 = CARTESIAN_POINT ( 'NONE',  ( 0.0000000000000000000, 0.0000000000000000000, 4.000000000000000000 ) ) ;
#98 = EDGE_CURVE ( 'NONE', #57, #213, #141, .T. ) ;
#99 = CARTESIAN_POINT ( 'NONE',  ( 10.00000000000000000, 1.224606353822377300E-015, 4.000000000000000000 ) ) ;
#100 = ORIENTED_EDGE ( 'NONE', *, *, #84, .T. ) ;
#101 = LINE ( 'NONE', #10, #238 ) ;
#102 = EDGE_LOOP ( 'NONE', ( #194, #15, #13, #151 ) ) ;
#103 = CARTESIAN_POINT ( 'NONE',  ( 0.0000000000000000000, 0.0000000000000000000, 0.0000000000000000000 ) ) ;
#104 = SURFACE_STYLE_FILL_AREA ( #244 ) ;
#105 = EDGE_CURVE ( 'NONE', #72, #156, #274, .T. ) ;
#106 = EDGE_CURVE ( 'NONE', #237, #66, #58, .T. ) ;
#107 = VECTOR ( 'NONE', #62, 1000.000000000000000 ) ;
#108 = FILL_AREA_STYLE ('',( #125 ) ) ;
#109 = ORIENTED_EDGE ( 'NONE', *, *, #162, .T. ) ;
#110 = EDGE_LOOP ( 'NONE', ( #100, #219, #197, #246 ) ) ;
#111 = EDGE_CURVE ( 'NONE', #31, #195, #48, .T. ) ;
#112 = DIRECTION ( 'NONE',  ( -1.000000000000000000, 0.0000000000000000000, -0.0000000000000000000 ) ) ;
#113 = EDGE_CURVE ( 'NONE', #80, #207, #163, .T. ) ;
#114 = PLANE ( 'NONE',  #250 ) ;
#115 = DIRECTION ( 'NONE',  ( 0.0000000000000000000, 1.000000000000000000, 0.0000000000000000000 ) ) ;
#116 = DIRECTION ( 'NONE',  ( -1.000000000000000000, -0.0000000000000000000, -0.0000000000000000000 ) ) ;
#117 = EDGE_CURVE ( 'NONE', #232, #213, #208, .T. ) ;
#118 = CARTESIAN_POINT ( 'NONE',  ( 10.00000000000000000, 1.224606353822377300E-015, 0.0000000000000000000 ) ) ;
#119 = CARTESIAN_POINT ( 'NONE',  ( 0.0000000000000000000, 15.00000000000000000, 0.0000000000000000000 ) ) ;
#120 = CARTESIAN_POINT ( 'NONE',  ( 10.00000000000000000, 15.00000000000000000, 4.000000000000000000 ) ) ;
#121 = FACE_BOUND ( 'NONE', #4, .T. ) ;
#122 = ADVANCED_FACE ( 'NONE', ( #155 ), #53, .F. ) ;
#123 = VECTOR ( 'NONE', #115, 1000.000000000000000 ) ;
#124 = EDGE_CURVE ( 'NONE', #188, #57, #34, .T. ) ;
#125 = FILL_AREA_STYLE_COLOUR ( '', #185 ) ;
#126 = ORIENTED_EDGE ( 'NONE', *, *, #113, .T. ) ;
#127 = ORIENTED_EDGE ( 'NONE', *, *, #70, .F. ) ;
#128 = EDGE_CURVE ( 'NONE', #213, #57, #202, .T. ) ;
#129 = ORIENTED_EDGE ( 'NONE', *, *, #162, .F. ) ;
#130 = LINE ( 'NONE', #144, #67 ) ;
#131 = EDGE_CURVE ( 'NONE', #232, #188, #248, .T. ) ;
#132 = DIRECTION ( 'NONE',  ( 0.0000000000000000000, 0.0000000000000000000, -1.000000000000000000 ) ) ;
#133 = EDGE_CURVE ( 'NONE', #237, #72, #196, .T. ) ;
#134 = DIRECTION ( 'NONE',  ( -0.0000000000000000000, -1.000000000000000000, -0.0000000000000000000 ) ) ;
#135 = PLANE ( 'NONE',  #265 ) ;
#136 = SURFACE_STYLE_FILL_AREA ( #108 ) ;
#137 = DIRECTION ( 'NONE',  ( 1.000000000000000000, 0.0000000000000000000, 0.0000000000000000000 ) ) ;
#138 = ORIENTED_EDGE ( 'NONE', *, *, #82, .T. ) ;
#139 = EDGE_CURVE ( 'NONE', #72, #31, #101, .T. ) ;
#140 = DIRECTION ( 'NONE',  ( 0.0000000000000000000, 0.0000000000000000000, 1.000000000000000000 ) ) ;
#141 = CIRCLE ( 'NONE', #32, 2.500000000000000400 ) ;
#142 = CLOSED_SHELL ( 'NONE', ( #147, #198, #212, #229, #29, #122, #50, #8 ) ) ;
#143 = CARTESIAN_POINT ( 'NONE',  ( 5.000000000000000900, 7.500000000000000000, 4.000000000000000000 ) ) ;
#144 = CARTESIAN_POINT ( 'NONE',  ( 0.0000000000000000000, 0.0000000000000000000, 0.0000000000000000000 ) ) ;
#145 = FACE_OUTER_BOUND ( 'NONE', #210, .T. ) ;
#146 = CARTESIAN_POINT ( 'NONE',  ( 0.0000000000000000000, 15.00000000000000000, 0.0000000000000000000 ) ) ;
#147 = ADVANCED_FACE ( 'NONE', ( #145 ), #20, .F. ) ;
#148 = EDGE_LOOP ( 'NONE', ( #203, #152, #215, #109 ) ) ;
#149 = DIRECTION ( 'NONE',  ( 1.000000000000000000, 1.224606353822377300E-016, 0.0000000000000000000 ) ) ;
#150 = LINE ( 'NONE', #206, #228 ) ;
#151 = ORIENTED_EDGE ( 'NONE', *, *, #98, .F. ) ;
#152 = ORIENTED_EDGE ( 'NONE', *, *, #139, .T. ) ;
#153 = ORIENTED_EDGE ( 'NONE', *, *, #78, .T. ) ;
#154 = PLANE ( 'NONE',  #1 ) ;
#155 = FACE_OUTER_BOUND ( 'NONE', #223, .T. ) ;
#156 = VERTEX_POINT ( 'NONE', #222 ) ;
#157 = CARTESIAN_POINT ( 'NONE',  ( 0.0000000000000000000, 0.0000000000000000000, 4.000000000000000000 ) ) ;
#158 = COLOUR_RGB ( '',1.000000000000000000, 1.000000000000000000, 1.000000000000000000 ) ;
#159 = DIRECTION ( 'NONE',  ( 0.0000000000000000000, -0.0000000000000000000, -1.000000000000000000 ) ) ;
#160 = EDGE_CURVE ( 'NONE', #31, #80, #150, .T. ) ;
#161 = DIRECTION ( 'NONE',  ( 0.0000000000000000000, -1.000000000000000000, 0.0000000000000000000 ) ) ;
#162 = EDGE_CURVE ( 'NONE', #80, #237, #27, .T. ) ;
#163 = LINE ( 'NONE', #65, #107 ) ;
#164 = CARTESIAN_POINT ( 'NONE',  ( 7.500000000000001800, 7.500000000000000000, 0.0000000000000000000 ) ) ;
#165 = VECTOR ( 'NONE', #96, 1000.000000000000000 ) ;
#166 = UNCERTAINTY_MEASURE_WITH_UNIT (LENGTH_MEASURE( 1.000000000000000100E-005 ), #264, 'distance_accuracy_value', 'NONE');
#167 = CARTESIAN_POINT ( 'NONE',  ( 0.0000000000000000000, 15.00000000000000000, 4.000000000000000000 ) ) ;
#168 = PLANE ( 'NONE',  #33 ) ;
#169 = DIRECTION ( 'NONE',  ( -1.000000000000000000, -1.224606353822377300E-016, 0.0000000000000000000 ) ) ;
#170 = CARTESIAN_POINT ( 'NONE',  ( 10.00000000000000000, 1.224606353822377300E-015, 4.000000000000000000 ) ) ;
#171 = LINE ( 'NONE', #118, #123 ) ;
#172 = CARTESIAN_POINT ( 'NONE',  ( 5.000000000000000900, 7.500000000000000000, 4.000000000000000000 ) ) ;
#173 = ORIENTED_EDGE ( 'NONE', *, *, #131, .F. ) ;
#174 = DIRECTION ( 'NONE',  ( -1.000000000000000000, 0.0000000000000000000, 0.0000000000000000000 ) ) ;
#175 = ORIENTED_EDGE ( 'NONE', *, *, #133, .F. ) ;
#176 = CARTESIAN_POINT ( 'NONE',  ( 0.0000000000000000000, 0.0000000000000000000, 4.000000000000000000 ) ) ;
#177 = ORIENTED_EDGE ( 'NONE', *, *, #105, .F. ) ;
#178 = PRESENTATION_STYLE_ASSIGNMENT (( #61 ) ) ;
#179 = PLANE ( 'NONE',  #41 ) ;
#180 = ORIENTED_EDGE ( 'NONE', *, *, #117, .F. ) ;
#181 = LINE ( 'NONE', #119, #187 ) ;
#182 = DIRECTION ( 'NONE',  ( -1.000000000000000000, -0.0000000000000000000, -0.0000000000000000000 ) ) ;
#183 = PRODUCT_DEFINITION_FORMATION_WITH_SPECIFIED_SOURCE ( 'ANY', '', #249, .NOT_KNOWN. ) ;
#184 = EDGE_LOOP ( 'NONE', ( #153, #23, #129, #126 ) ) ;
#185 = COLOUR_RGB ( '',1.000000000000000000, 1.000000000000000000, 1.000000000000000000 ) ;
#186 = DIRECTION ( 'NONE',  ( -1.000000000000000000, 0.0000000000000000000, 0.0000000000000000000 ) ) ;
#187 = VECTOR ( 'NONE', #116, 1000.000000000000000 ) ;
#188 = VERTEX_POINT ( 'NONE', #191 ) ;
#189 = PRODUCT_RELATED_PRODUCT_CATEGORY ( 'part', '', ( #249 ) ) ;
#190 = SHAPE_DEFINITION_REPRESENTATION ( #276, #6 ) ;
#191 = CARTESIAN_POINT ( 'NONE',  ( 7.500000000000001800, 7.500000000000000000, 4.000000000000000000 ) ) ;
#192 = VECTOR ( 'NONE', #182, 1000.000000000000000 ) ;
#193 = DIRECTION ( 'NONE',  ( -0.0000000000000000000, -0.0000000000000000000, -1.000000000000000000 ) ) ;
#194 = ORIENTED_EDGE ( 'NONE', *, *, #124, .F. ) ;
#195 = VERTEX_POINT ( 'NONE', #199 ) ;
#196 = LINE ( 'NONE', #44, #90 ) ;
#197 = ORIENTED_EDGE ( 'NONE', *, *, #139, .F. ) ;
#198 = ADVANCED_FACE ( 'NONE', ( #86, #74 ), #154, .F. ) ;
#199 = CARTESIAN_POINT ( 'NONE',  ( 10.00000000000000000, 1.224606353822377300E-015, 0.0000000000000000000 ) ) ;
#200 = DIRECTION ( 'NONE',  ( 0.0000000000000000000, 1.000000000000000000, 0.0000000000000000000 ) ) ;
#201 = UNCERTAINTY_MEASURE_WITH_UNIT (LENGTH_MEASURE( 1.000000000000000100E-005 ), #240, 'distance_accuracy_value', 'NONE');
#202 = CIRCLE ( 'NONE', #26, 2.500000000000000400 ) ;
#203 = ORIENTED_EDGE ( 'NONE', *, *, #133, .T. ) ;
#204 = MANIFOLD_SOLID_BREP ( 'Basis-Linear austragen', #142 ) ;
#205 = CARTESIAN_POINT ( 'NONE',  ( 0.0000000000000000000, 15.00000000000000000, 4.000000000000000000 ) ) ;
#206 = CARTESIAN_POINT ( 'NONE',  ( 10.00000000000000000, 1.224606353822377300E-015, 4.000000000000000000 ) ) ;
#207 = VERTEX_POINT ( 'NONE', #85 ) ;
#208 = LINE ( 'NONE', #60, #255 ) ;
#209 = PRODUCT_DEFINITION ( 'UNKNOWN', '', #183, #81 ) ;
#210 = EDGE_LOOP ( 'NONE', ( #94, #5, #254, #180 ) ) ;
#211 = FACE_OUTER_BOUND ( 'NONE', #102, .T. ) ;
#212 = ADVANCED_FACE ( 'NONE', ( #224, #121 ), #135, .T. ) ;
#213 = VERTEX_POINT ( 'NONE', #83 ) ;
#214 = APPLICATION_PROTOCOL_DEFINITION ( 'draft international standard', 'automotive_design', 1998, #218 ) ;
#215 = ORIENTED_EDGE ( 'NONE', *, *, #160, .T. ) ;
#216 = LINE ( 'NONE', #103, #11 ) ;
#217 = UNCERTAINTY_MEASURE_WITH_UNIT (LENGTH_MEASURE( 1.000000000000000100E-005 ), #40, 'distance_accuracy_value', 'NONE');
#218 = APPLICATION_CONTEXT ( 'automotive_design' ) ;
#219 = ORIENTED_EDGE ( 'NONE', *, *, #111, .F. ) ;
#220 = PRODUCT_CONTEXT ( 'NONE', #245, 'mechanical' ) ;
#221 = DIRECTION ( 'NONE',  ( 1.000000000000000000, 0.0000000000000000000, 0.0000000000000000000 ) ) ;
#222 = CARTESIAN_POINT ( 'NONE',  ( 0.0000000000000000000, 0.0000000000000000000, 0.0000000000000000000 ) ) ;
#223 = EDGE_LOOP ( 'NONE', ( #138, #256, #37, #75 ) ) ;
#224 = FACE_OUTER_BOUND ( 'NONE', #68, .T. ) ;
#225 = FACE_OUTER_BOUND ( 'NONE', #184, .T. ) ;
#226 =( GEOMETRIC_REPRESENTATION_CONTEXT ( 3 ) GLOBAL_UNCERTAINTY_ASSIGNED_CONTEXT ( ( #201 ) ) GLOBAL_UNIT_ASSIGNED_CONTEXT ( ( #240, #239, #236 ) ) REPRESENTATION_CONTEXT ( 'NONE', 'WORKASPACE' ) );
#227 = DIRECTION ( 'NONE',  ( -1.224606353822377300E-016, 1.000000000000000000, 0.0000000000000000000 ) ) ;
#228 = VECTOR ( 'NONE', #200, 1000.000000000000000 ) ;
#229 = ADVANCED_FACE ( 'NONE', ( #272 ), #114, .F. ) ;
#230 = ORIENTED_EDGE ( 'NONE', *, *, #78, .F. ) ;
#231 = FACE_OUTER_BOUND ( 'NONE', #110, .T. ) ;
#232 = VERTEX_POINT ( 'NONE', #42 ) ;
#233 = AXIS2_PLACEMENT_3D ( 'NONE', #271, #234, #221 ) ;
#234 = DIRECTION ( 'NONE',  ( 0.0000000000000000000, 0.0000000000000000000, 1.000000000000000000 ) ) ;
#235 = MECHANICAL_DESIGN_GEOMETRIC_PRESENTATION_REPRESENTATION (  '', ( #253 ), #226 ) ;
#236 =( NAMED_UNIT ( * ) SI_UNIT ( $, .STERADIAN. ) SOLID_ANGLE_UNIT ( ) );
#237 = VERTEX_POINT ( 'NONE', #270 ) ;
#238 = VECTOR ( 'NONE', #7, 1000.000000000000000 ) ;
#239 =( NAMED_UNIT ( * ) PLANE_ANGLE_UNIT ( ) SI_UNIT ( $, .RADIAN. ) );
#240 =( LENGTH_UNIT ( ) NAMED_UNIT ( * ) SI_UNIT ( .MILLI., .METRE. ) );
#241 = ORIENTED_EDGE ( 'NONE', *, *, #106, .T. ) ;
#242 = SURFACE_STYLE_USAGE ( .BOTH. , #243 ) ;
#243 = SURFACE_SIDE_STYLE ('',( #104 ) ) ;
#244 = FILL_AREA_STYLE ('',( #267 ) ) ;
#245 = APPLICATION_CONTEXT ( 'automotive_design' ) ;
#246 = ORIENTED_EDGE ( 'NONE', *, *, #105, .T. ) ;
#247 = DIRECTION ( 'NONE',  ( -0.0000000000000000000, -0.0000000000000000000, -1.000000000000000000 ) ) ;
#248 = CIRCLE ( 'NONE', #18, 2.500000000000000400 ) ;
#249 = PRODUCT ( '096p0151004m6', '096p0151004m6', '', ( #220 ) ) ;
#250 = AXIS2_PLACEMENT_3D ( 'NONE', #55, #36, #251 ) ;
#251 = DIRECTION ( 'NONE',  ( 0.0000000000000000000, 0.0000000000000000000, -1.000000000000000000 ) ) ;
#252 = EDGE_LOOP ( 'NONE', ( #173, #35 ) ) ;
#253 = STYLED_ITEM ( 'NONE', ( #38 ), #6 ) ;
#254 = ORIENTED_EDGE ( 'NONE', *, *, #128, .F. ) ;
#255 = VECTOR ( 'NONE', #52, 1000.000000000000000 ) ;
#256 = ORIENTED_EDGE ( 'NONE', *, *, #113, .F. ) ;
#257 = PRESENTATION_LAYER_ASSIGNMENT (  '', '', ( #253 ) ) ;
#258 =( GEOMETRIC_REPRESENTATION_CONTEXT ( 3 ) GLOBAL_UNCERTAINTY_ASSIGNED_CONTEXT ( ( #166 ) ) GLOBAL_UNIT_ASSIGNED_CONTEXT ( ( #264, #263, #260 ) ) REPRESENTATION_CONTEXT ( 'NONE', 'WORKASPACE' ) );
#259 = APPLICATION_PROTOCOL_DEFINITION ( 'draft international standard', 'automotive_design', 1998, #245 ) ;
#260 =( NAMED_UNIT ( * ) SI_UNIT ( $, .STERADIAN. ) SOLID_ANGLE_UNIT ( ) );
#261 = VECTOR ( 'NONE', #69, 1000.000000000000000 ) ;
#262 = CARTESIAN_POINT ( 'NONE',  ( 5.000000000000000900, 7.500000000000000000, 4.000000000000000000 ) ) ;
#263 =( NAMED_UNIT ( * ) PLANE_ANGLE_UNIT ( ) SI_UNIT ( $, .RADIAN. ) );
#264 =( LENGTH_UNIT ( ) NAMED_UNIT ( * ) SI_UNIT ( .MILLI., .METRE. ) );
#265 = AXIS2_PLACEMENT_3D ( 'NONE', #59, #79, #56 ) ;
#266 = DIRECTION ( 'NONE',  ( 1.000000000000000000, 0.0000000000000000000, 0.0000000000000000000 ) ) ;
#267 = FILL_AREA_STYLE_COLOUR ( '', #158 ) ;
#268 =( GEOMETRIC_REPRESENTATION_CONTEXT ( 3 ) GLOBAL_UNCERTAINTY_ASSIGNED_CONTEXT ( ( #217 ) ) GLOBAL_UNIT_ASSIGNED_CONTEXT ( ( #40, #14, #88 ) ) REPRESENTATION_CONTEXT ( 'NONE', 'WORKASPACE' ) );
#269 = CARTESIAN_POINT ( 'NONE',  ( 0.0000000000000000000, 15.00000000000000000, 4.000000000000000000 ) ) ;
#270 = CARTESIAN_POINT ( 'NONE',  ( 0.0000000000000000000, 15.00000000000000000, 4.000000000000000000 ) ) ;
#271 = CARTESIAN_POINT ( 'NONE',  ( 0.0000000000000000000, 0.0000000000000000000, 0.0000000000000000000 ) ) ;
#272 = FACE_OUTER_BOUND ( 'NONE', #64, .T. ) ;
#273 = MECHANICAL_DESIGN_GEOMETRIC_PRESENTATION_REPRESENTATION (  '', ( #17 ), #268 ) ;
#274 = LINE ( 'NONE', #97, #165 ) ;
#275 = PRESENTATION_LAYER_ASSIGNMENT (  '', '', ( #17 ) ) ;
#276 = PRODUCT_DEFINITION_SHAPE ( 'NONE', 'NONE',  #209 ) ;
ENDSEC;
END-ISO-10303-21;
