ISO-10303-21;
HEADER;
FILE_DESCRIPTION (( 'STEP AP214' ),
    '1' );
FILE_NAME ('096P0151004M5.STEP',
    '2014-08-18T12:27:32',
    ( '' ),
    ( '' ),
    'SwSTEP 2.0',
    'SolidWorks 2014',
    '' );
FILE_SCHEMA (( 'AUTOMOTIVE_DESIGN' ));
ENDSEC;

DATA;
#1 = ORIENTED_EDGE ( 'NONE', *, *, #253, .T. ) ;
#2 = PRESENTATION_STYLE_ASSIGNMENT (( #363 ) ) ;
#3 = VERTEX_POINT ( 'NONE', #20 ) ;
#4 =( LENGTH_UNIT ( ) NAMED_UNIT ( * ) SI_UNIT ( .MILLI., .METRE. ) );
#5 = ORIENTED_EDGE ( 'NONE', *, *, #181, .F. ) ;
#6 = SURFACE_STYLE_USAGE ( .BOTH. , #8 ) ;
#7 =( GEOMETRIC_REPRESENTATION_CONTEXT ( 3 ) GLOBAL_UNCERTAINTY_ASSIGNED_CONTEXT ( ( #192 ) ) GLOBAL_UNIT_ASSIGNED_CONTEXT ( ( #250, #248, #247 ) ) REPRESENTATION_CONTEXT ( 'NONE', 'WORKASPACE' ) );
#8 = SURFACE_SIDE_STYLE ('',( #93 ) ) ;
#9 = FILL_AREA_STYLE_COLOUR ( '', #261 ) ;
#10 = FACE_OUTER_BOUND ( 'NONE', #24, .T. ) ;
#11 = FILL_AREA_STYLE ('',( #28 ) ) ;
#12 = DIRECTION ( 'NONE',  ( 8.673617379884035500E-017, -1.000000000000000000, 0.0000000000000000000 ) ) ;
#13 = CIRCLE ( 'NONE', #135, 2.524999999999999000 ) ;
#14 = MECHANICAL_DESIGN_GEOMETRIC_PRESENTATION_REPRESENTATION (  '', ( #25 ), #7 ) ;
#15 = DIRECTION ( 'NONE',  ( 1.000000000000000000, 0.0000000000000000000, 0.0000000000000000000 ) ) ;
#16 = CARTESIAN_POINT ( 'NONE',  ( 0.0000000000000000000, 0.0000000000000000000, -2.000000000000000900 ) ) ;
#17 = VERTEX_POINT ( 'NONE', #37 ) ;
#18 = DIRECTION ( 'NONE',  ( -0.0000000000000000000, -0.0000000000000000000, 1.000000000000000000 ) ) ;
#19 = CIRCLE ( 'NONE', #327, 2.524999999999999000 ) ;
#20 = CARTESIAN_POINT ( 'NONE',  ( -2.100000000000000100, 2.571758278209442000E-016, 1.575000000000000000 ) ) ;
#21 = VERTEX_POINT ( 'NONE', #27 ) ;
#22 = PRESENTATION_LAYER_ASSIGNMENT (  '', '', ( #25 ) ) ;
#23 = DIRECTION ( 'NONE',  ( -0.0000000000000000000, -0.0000000000000000000, -1.000000000000000000 ) ) ;
#24 = EDGE_LOOP ( 'NONE', ( #359, #97, #226, #213 ) ) ;
#25 = STYLED_ITEM ( 'NONE', ( #273 ), #203 ) ;
#26 = CARTESIAN_POINT ( 'NONE',  ( 0.0000000000000000000, 0.0000000000000000000, 2.000000000000000000 ) ) ;
#27 = CARTESIAN_POINT ( 'NONE',  ( 5.000000000000000900, 7.500000000000000000, 2.000000000000000000 ) ) ;
#28 = FILL_AREA_STYLE_COLOUR ( '', #260 ) ;
#29 = CARTESIAN_POINT ( 'NONE',  ( 0.0000000000000000000, 0.0000000000000000000, -2.000000000000000900 ) ) ;
#30 = FACE_OUTER_BOUND ( 'NONE', #187, .T. ) ;
#31 = ORIENTED_EDGE ( 'NONE', *, *, #146, .T. ) ;
#32 = EDGE_LOOP ( 'NONE', ( #55, #357, #274, #380 ) ) ;
#33 = LINE ( 'NONE', #111, #212 ) ;
#34 = ORIENTED_EDGE ( 'NONE', *, *, #242, .F. ) ;
#35 = EDGE_CURVE ( 'NONE', #142, #317, #13, .T. ) ;
#36 = AXIS2_PLACEMENT_3D ( 'NONE', #301, #312, #287 ) ;
#37 = CARTESIAN_POINT ( 'NONE',  ( -4.999999999999999100, 7.499999999999999100, 2.000000000000000000 ) ) ;
#38 = LINE ( 'NONE', #319, #288 ) ;
#39 = ORIENTED_EDGE ( 'NONE', *, *, #283, .F. ) ;
#40 = EDGE_CURVE ( 'NONE', #91, #185, #169, .T. ) ;
#41 = LINE ( 'NONE', #119, #277 ) ;
#42 = EDGE_LOOP ( 'NONE', ( #39, #31, #259, #124 ) ) ;
#43 = MANIFOLD_SOLID_BREP ( 'M5 Gewindebohrung1', #214 ) ;
#44 = EDGE_CURVE ( 'NONE', #185, #317, #158, .T. ) ;
#45 = CARTESIAN_POINT ( 'NONE',  ( -2.524999999999999000, 0.0000000000000000000, -2.000000000000000900 ) ) ;
#46 = PLANE ( 'NONE',  #72 ) ;
#47 = CARTESIAN_POINT ( 'NONE',  ( 5.000000000000000900, 7.500000000000000000, 2.000000000000000000 ) ) ;
#48 = AXIS2_PLACEMENT_3D ( 'NONE', #285, #284, #282 ) ;
#49 = CARTESIAN_POINT ( 'NONE',  ( -4.999999999999999100, 7.499999999999999100, 2.000000000000000000 ) ) ;
#50 = LINE ( 'NONE', #372, #377 ) ;
#51 = ORIENTED_EDGE ( 'NONE', *, *, #403, .T. ) ;
#52 = CARTESIAN_POINT ( 'NONE',  ( -2.524999999999999500, 3.092233167847066000E-016, 2.000000000000001800 ) ) ;
#53 = DIRECTION ( 'NONE',  ( 1.000000000000000000, 0.0000000000000000000, 0.0000000000000000000 ) ) ;
#54 = LINE ( 'NONE', #202, #128 ) ;
#55 = ORIENTED_EDGE ( 'NONE', *, *, #177, .F. ) ;
#56 = DIRECTION ( 'NONE',  ( -0.0000000000000000000, -0.0000000000000000000, 1.000000000000000000 ) ) ;
#57 = EDGE_CURVE ( 'NONE', #17, #200, #325, .T. ) ;
#58 = CARTESIAN_POINT ( 'NONE',  ( 0.0000000000000000000, 0.0000000000000000000, -1.575000000000000000 ) ) ;
#59 = AXIS2_PLACEMENT_3D ( 'NONE', #311, #308, #307 ) ;
#60 = VECTOR ( 'NONE', #347, 1000.000000000000000 ) ;
#61 = ORIENTED_EDGE ( 'NONE', *, *, #188, .F. ) ;
#62 = DIRECTION ( 'NONE',  ( 1.000000000000000000, 0.0000000000000000000, 0.0000000000000000000 ) ) ;
#63 = LINE ( 'NONE', #328, #320 ) ;
#64 = DIRECTION ( 'NONE',  ( -0.0000000000000000000, -0.0000000000000000000, 1.000000000000000000 ) ) ;
#65 = VECTOR ( 'NONE', #183, 1000.000000000000000 ) ;
#66 = ORIENTED_EDGE ( 'NONE', *, *, #35, .F. ) ;
#67 = ADVANCED_FACE ( 'NONE', ( #150, #251 ), #216, .T. ) ;
#68 = APPLICATION_PROTOCOL_DEFINITION ( 'draft international standard', 'automotive_design', 1998, #69 ) ;
#69 = APPLICATION_CONTEXT ( 'automotive_design' ) ;
#70 = LINE ( 'NONE', #368, #229 ) ;
#71 = SURFACE_SIDE_STYLE ('',( #198 ) ) ;
#72 = AXIS2_PLACEMENT_3D ( 'NONE', #131, #134, #402 ) ;
#73 = DIRECTION ( 'NONE',  ( 1.000000000000000000, 0.0000000000000000000, -0.0000000000000000000 ) ) ;
#74 = AXIS2_PLACEMENT_3D ( 'NONE', #394, #393, #388 ) ;
#75 = CARTESIAN_POINT ( 'NONE',  ( 0.0000000000000000000, 0.0000000000000000000, 2.000000000000001800 ) ) ;
#76 = PLANE ( 'NONE',  #315 ) ;
#77 = VECTOR ( 'NONE', #272, 999.9999999999998900 ) ;
#78 = AXIS2_PLACEMENT_3D ( 'NONE', #215, #238, #223 ) ;
#79 = DIRECTION ( 'NONE',  ( 0.0000000000000000000, 1.000000000000000000, 0.0000000000000000000 ) ) ;
#80 = ORIENTED_EDGE ( 'NONE', *, *, #242, .T. ) ;
#81 = EDGE_CURVE ( 'NONE', #390, #265, #389, .T. ) ;
#82 = ORIENTED_EDGE ( 'NONE', *, *, #40, .T. ) ;
#83 = CARTESIAN_POINT ( 'NONE',  ( -4.999999999999999100, -7.500000000000000900, -2.000000000000000000 ) ) ;
#84 = AXIS2_PLACEMENT_3D ( 'NONE', #244, #266, #241 ) ;
#85 = CARTESIAN_POINT ( 'NONE',  ( 5.000000000000000900, -7.499999999999999100, -2.000000000000000000 ) ) ;
#86 = AXIS2_PLACEMENT_3D ( 'NONE', #155, #147, #143 ) ;
#87 = DIRECTION ( 'NONE',  ( -0.0000000000000000000, -0.0000000000000000000, 1.000000000000000000 ) ) ;
#88 = ORIENTED_EDGE ( 'NONE', *, *, #44, .T. ) ;
#89 = EDGE_LOOP ( 'NONE', ( #306, #221, #113, #162 ) ) ;
#90 = FACE_OUTER_BOUND ( 'NONE', #324, .T. ) ;
#91 = VERTEX_POINT ( 'NONE', #117 ) ;
#92 =( GEOMETRIC_REPRESENTATION_CONTEXT ( 3 ) GLOBAL_UNCERTAINTY_ASSIGNED_CONTEXT ( ( #294 ) ) GLOBAL_UNIT_ASSIGNED_CONTEXT ( ( #252, #170, #335 ) ) REPRESENTATION_CONTEXT ( 'NONE', 'WORKASPACE' ) );
#93 = SURFACE_STYLE_FILL_AREA ( #11 ) ;
#94 = CONICAL_SURFACE ( 'NONE', #36, 2.524999999999999500, 0.7853981633974452800 ) ;
#95 = ORIENTED_EDGE ( 'NONE', *, *, #256, .T. ) ;
#96 = PRODUCT_CONTEXT ( 'NONE', #195, 'mechanical' ) ;
#97 = ORIENTED_EDGE ( 'NONE', *, *, #40, .F. ) ;
#98 = VECTOR ( 'NONE', #102, 1000.000000000000000 ) ;
#99 = ORIENTED_EDGE ( 'NONE', *, *, #81, .F. ) ;
#100 = MECHANICAL_DESIGN_GEOMETRIC_PRESENTATION_REPRESENTATION (  '', ( #125 ), #92 ) ;
#101 = ADVANCED_FACE ( 'NONE', ( #316 ), #46, .F. ) ;
#102 = DIRECTION ( 'NONE',  ( -0.0000000000000000000, -0.0000000000000000000, -1.000000000000000000 ) ) ;
#103 = DIRECTION ( 'NONE',  ( 1.000000000000000000, 8.673617379884035500E-017, 0.0000000000000000000 ) ) ;
#104 = PRESENTATION_LAYER_ASSIGNMENT (  '', '', ( #125 ) ) ;
#105 = EDGE_CURVE ( 'NONE', #121, #3, #137, .T. ) ;
#106 = CIRCLE ( 'NONE', #48, 2.524999999999999500 ) ;
#107 = VERTEX_POINT ( 'NONE', #245 ) ;
#108 = DIRECTION ( 'NONE',  ( 0.0000000000000000000, 1.000000000000000000, 0.0000000000000000000 ) ) ;
#109 = PRESENTATION_STYLE_ASSIGNMENT (( #182 ) ) ;
#110 = EDGE_LOOP ( 'NONE', ( #262, #378, #1, #191 ) ) ;
#111 = CARTESIAN_POINT ( 'NONE',  ( 5.000000000000000900, -7.499999999999999100, 2.000000000000000000 ) ) ;
#112 = LINE ( 'NONE', #116, #98 ) ;
#113 = ORIENTED_EDGE ( 'NONE', *, *, #293, .F. ) ;
#114 = UNCERTAINTY_MEASURE_WITH_UNIT (LENGTH_MEASURE( 1.000000000000000100E-005 ), #232, 'distance_accuracy_value', 'NONE');
#115 = PRODUCT_DEFINITION ( 'UNKNOWN', '', #123, #154 ) ;
#116 = CARTESIAN_POINT ( 'NONE',  ( 5.000000000000000900, 7.500000000000000000, 2.000000000000000000 ) ) ;
#117 = CARTESIAN_POINT ( 'NONE',  ( 2.099999999999999600, 2.831995723028253300E-016, -1.575000000000000000 ) ) ;
#118 = DIRECTION ( 'NONE',  ( 1.000000000000000000, 0.0000000000000000000, 0.0000000000000000000 ) ) ;
#119 = CARTESIAN_POINT ( 'NONE',  ( 2.524999999999999500, 0.0000000000000000000, 2.000000000000001800 ) ) ;
#120 = VECTOR ( 'NONE', #331, 1000.000000000000000 ) ;
#121 = VERTEX_POINT ( 'NONE', #398 ) ;
#122 = LINE ( 'NONE', #145, #369 ) ;
#123 = PRODUCT_DEFINITION_FORMATION_WITH_SPECIFIED_SOURCE ( 'ANY', '', #338, .NOT_KNOWN. ) ;
#124 = ORIENTED_EDGE ( 'NONE', *, *, #171, .F. ) ;
#125 = STYLED_ITEM ( 'NONE', ( #2 ), #43 ) ;
#126 = LINE ( 'NONE', #345, #60 ) ;
#127 = ORIENTED_EDGE ( 'NONE', *, *, #164, .F. ) ;
#128 = VECTOR ( 'NONE', #204, 1000.000000000000000 ) ;
#129 = DIRECTION ( 'NONE',  ( 0.0000000000000000000, 0.0000000000000000000, 1.000000000000000000 ) ) ;
#130 = ORIENTED_EDGE ( 'NONE', *, *, #256, .F. ) ;
#131 = CARTESIAN_POINT ( 'NONE',  ( 5.000000000000000900, -7.499999999999999100, 2.000000000000000000 ) ) ;
#132 = AXIS2_PLACEMENT_3D ( 'NONE', #373, #375, #374 ) ;
#133 = PRODUCT_RELATED_PRODUCT_CATEGORY ( 'part', '', ( #338 ) ) ;
#134 = DIRECTION ( 'NONE',  ( -1.734723475976807100E-016, 1.000000000000000000, 0.0000000000000000000 ) ) ;
#135 = AXIS2_PLACEMENT_3D ( 'NONE', #16, #401, #400 ) ;
#136 = DIRECTION ( 'NONE',  ( 0.0000000000000000000, -0.0000000000000000000, 1.000000000000000000 ) ) ;
#137 = CIRCLE ( 'NONE', #74, 2.100000000000000100 ) ;
#138 = ORIENTED_EDGE ( 'NONE', *, *, #181, .T. ) ;
#139 = CYLINDRICAL_SURFACE ( 'NONE', #268, 2.100000000000000100 ) ;
#140 = CARTESIAN_POINT ( 'NONE',  ( -4.999999999999999100, -7.500000000000000900, -2.000000000000000000 ) ) ;
#141 = FACE_OUTER_BOUND ( 'NONE', #382, .T. ) ;
#142 = VERTEX_POINT ( 'NONE', #387 ) ;
#143 = DIRECTION ( 'NONE',  ( 1.000000000000000000, 0.0000000000000000000, -0.0000000000000000000 ) ) ;
#144 = DIRECTION ( 'NONE',  ( -1.000000000000000000, -8.673617379884035500E-017, 0.0000000000000000000 ) ) ;
#145 = CARTESIAN_POINT ( 'NONE',  ( 5.000000000000000900, 7.500000000000000000, -2.000000000000000000 ) ) ;
#146 = EDGE_CURVE ( 'NONE', #185, #3, #381, .T. ) ;
#147 = DIRECTION ( 'NONE',  ( 0.0000000000000000000, -0.0000000000000000000, 1.000000000000000000 ) ) ;
#148 = EDGE_CURVE ( 'NONE', #3, #310, #70, .T. ) ;
#149 =( NAMED_UNIT ( * ) SI_UNIT ( $, .STERADIAN. ) SOLID_ANGLE_UNIT ( ) );
#150 = FACE_BOUND ( 'NONE', #299, .T. ) ;
#151 = AXIS2_PLACEMENT_3D ( 'NONE', #321, #129, #118 ) ;
#152 =( NAMED_UNIT ( * ) PLANE_ANGLE_UNIT ( ) SI_UNIT ( $, .RADIAN. ) );
#153 = CARTESIAN_POINT ( 'NONE',  ( 0.0000000000000000000, 0.0000000000000000000, -2.000000000000000000 ) ) ;
#154 = PRODUCT_DEFINITION_CONTEXT ( 'detailed design', #69, 'design' ) ;
#155 = CARTESIAN_POINT ( 'NONE',  ( 0.0000000000000000000, 0.0000000000000000000, 2.000000000000000000 ) ) ;
#156 = UNCERTAINTY_MEASURE_WITH_UNIT (LENGTH_MEASURE( 1.000000000000000100E-005 ), #161, 'distance_accuracy_value', 'NONE');
#157 = VERTEX_POINT ( 'NONE', #362 ) ;
#158 = LINE ( 'NONE', #281, #77 ) ;
#159 = EDGE_CURVE ( 'NONE', #91, #142, #50, .T. ) ;
#160 =( NAMED_UNIT ( * ) PLANE_ANGLE_UNIT ( ) SI_UNIT ( $, .RADIAN. ) );
#161 =( LENGTH_UNIT ( ) NAMED_UNIT ( * ) SI_UNIT ( .MILLI., .METRE. ) );
#162 = ORIENTED_EDGE ( 'NONE', *, *, #44, .F. ) ;
#163 = ORIENTED_EDGE ( 'NONE', *, *, #159, .F. ) ;
#164 = EDGE_CURVE ( 'NONE', #370, #209, #126, .T. ) ;
#165 = DIRECTION ( 'NONE',  ( 0.7071067811865453500, 0.0000000000000000000, 0.7071067811865496800 ) ) ;
#166 = PLANE ( 'NONE',  #346 ) ;
#167 = CARTESIAN_POINT ( 'NONE',  ( 0.0000000000000000000, 0.0000000000000000000, 2.000000000000001800 ) ) ;
#168 = DIRECTION ( 'NONE',  ( 0.0000000000000000000, 0.0000000000000000000, -1.000000000000000000 ) ) ;
#169 = CIRCLE ( 'NONE', #132, 2.099999999999999600 ) ;
#170 =( NAMED_UNIT ( * ) PLANE_ANGLE_UNIT ( ) SI_UNIT ( $, .RADIAN. ) );
#171 = EDGE_CURVE ( 'NONE', #91, #121, #296, .T. ) ;
#172 = DIRECTION ( 'NONE',  ( 1.000000000000000000, 0.0000000000000000000, 0.0000000000000000000 ) ) ;
#173 = EDGE_LOOP ( 'NONE', ( #99, #34, #391, #384 ) ) ;
#174 = LINE ( 'NONE', #49, #344 ) ;
#175 = ORIENTED_EDGE ( 'NONE', *, *, #293, .T. ) ;
#176 = PLANE ( 'NONE',  #396 ) ;
#177 = EDGE_CURVE ( 'NONE', #3, #121, #220, .T. ) ;
#178 = MECHANICAL_DESIGN_GEOMETRIC_PRESENTATION_REPRESENTATION (  '', ( #257 ), #193 ) ;
#179 = DIRECTION ( 'NONE',  ( 1.000000000000000000, 0.0000000000000000000, 0.0000000000000000000 ) ) ;
#180 = PRESENTATION_STYLE_ASSIGNMENT (( #6 ) ) ;
#181 = EDGE_CURVE ( 'NONE', #200, #370, #38, .T. ) ;
#182 = SURFACE_STYLE_USAGE ( .BOTH. , #71 ) ;
#183 = DIRECTION ( 'NONE',  ( -1.000000000000000000, -8.673617379884035500E-017, 0.0000000000000000000 ) ) ;
#184 = SURFACE_STYLE_FILL_AREA ( #275 ) ;
#185 = VERTEX_POINT ( 'NONE', #314 ) ;
#186 = DIRECTION ( 'NONE',  ( -0.0000000000000000000, -0.0000000000000000000, 1.000000000000000000 ) ) ;
#187 = EDGE_LOOP ( 'NONE', ( #361, #130, #258, #330 ) ) ;
#188 = EDGE_CURVE ( 'NONE', #310, #107, #106, .T. ) ;
#189 = AXIS2_PLACEMENT_3D ( 'NONE', #302, #219, #217 ) ;
#190 = CIRCLE ( 'NONE', #349, 2.099999999999999600 ) ;
#191 = ORIENTED_EDGE ( 'NONE', *, *, #270, .T. ) ;
#192 = UNCERTAINTY_MEASURE_WITH_UNIT (LENGTH_MEASURE( 1.000000000000000100E-005 ), #250, 'distance_accuracy_value', 'NONE');
#193 =( GEOMETRIC_REPRESENTATION_CONTEXT ( 3 ) GLOBAL_UNCERTAINTY_ASSIGNED_CONTEXT ( ( #156 ) ) GLOBAL_UNIT_ASSIGNED_CONTEXT ( ( #161, #152, #149 ) ) REPRESENTATION_CONTEXT ( 'NONE', 'WORKASPACE' ) );
#194 = ADVANCED_FACE ( 'NONE', ( #208 ), #94, .F. ) ;
#195 = APPLICATION_CONTEXT ( 'automotive_design' ) ;
#196 = FILL_AREA_STYLE ('',( #318 ) ) ;
#197 = ORIENTED_EDGE ( 'NONE', *, *, #227, .T. ) ;
#198 = SURFACE_STYLE_FILL_AREA ( #196 ) ;
#199 = CONICAL_SURFACE ( 'NONE', #234, 2.524999999999999500, 0.7853981633974452800 ) ;
#200 = VERTEX_POINT ( 'NONE', #269 ) ;
#201 = CARTESIAN_POINT ( 'NONE',  ( 5.000000000000000900, 7.500000000000000000, 2.000000000000000000 ) ) ;
#202 = CARTESIAN_POINT ( 'NONE',  ( 5.000000000000000900, -7.499999999999999100, -2.000000000000000000 ) ) ;
#203 = ADVANCED_FACE ( 'NONE', ( #356 ), #383, .F. ) ;
#204 = DIRECTION ( 'NONE',  ( 1.000000000000000000, 1.734723475976807100E-016, -0.0000000000000000000 ) ) ;
#205 = ADVANCED_FACE ( 'NONE', ( #30 ), #237, .F. ) ;
#206 = CARTESIAN_POINT ( 'NONE',  ( 5.000000000000000900, -7.499999999999999100, -2.000000000000000000 ) ) ;
#207 = ADVANCED_FACE ( 'NONE', ( #231 ), #379, .F. ) ;
#208 = FACE_OUTER_BOUND ( 'NONE', #110, .T. ) ;
#209 = VERTEX_POINT ( 'NONE', #206 ) ;
#210 = DIRECTION ( 'NONE',  ( -0.0000000000000000000, -1.000000000000000000, -0.0000000000000000000 ) ) ;
#211 = CARTESIAN_POINT ( 'NONE',  ( -4.999999999999999100, -7.500000000000000900, 2.000000000000000000 ) ) ;
#212 = VECTOR ( 'NONE', #108, 1000.000000000000000 ) ;
#213 = ORIENTED_EDGE ( 'NONE', *, *, #105, .T. ) ;
#214 = CLOSED_SHELL ( 'NONE', ( #240, #203, #354, #236, #101, #205, #303, #67, #243, #207, #343, #194 ) ) ;
#215 = CARTESIAN_POINT ( 'NONE',  ( 0.0000000000000000000, 0.0000000000000000000, -1.575000000000000000 ) ) ;
#216 = PLANE ( 'NONE',  #86 ) ;
#217 = DIRECTION ( 'NONE',  ( 0.0000000000000000000, 0.0000000000000000000, 1.000000000000000000 ) ) ;
#218 = PRESENTATION_LAYER_ASSIGNMENT (  '', '', ( #257 ) ) ;
#219 = DIRECTION ( 'NONE',  ( -1.000000000000000000, 0.0000000000000000000, 0.0000000000000000000 ) ) ;
#220 = CIRCLE ( 'NONE', #59, 2.100000000000000100 ) ;
#221 = ORIENTED_EDGE ( 'NONE', *, *, #159, .T. ) ;
#222 = APPLICATION_PROTOCOL_DEFINITION ( 'draft international standard', 'automotive_design', 1998, #195 ) ;
#223 = DIRECTION ( 'NONE',  ( -1.000000000000000000, 0.0000000000000000000, 0.0000000000000000000 ) ) ;
#224 = CONICAL_SURFACE ( 'NONE', #279, 2.099999999999999600, 0.7853981633974466100 ) ;
#225 = FACE_BOUND ( 'NONE', #233, .T. ) ;
#226 = ORIENTED_EDGE ( 'NONE', *, *, #171, .T. ) ;
#227 = EDGE_CURVE ( 'NONE', #265, #209, #54, .T. ) ;
#228 = EDGE_CURVE ( 'NONE', #21, #17, #309, .T. ) ;
#229 = VECTOR ( 'NONE', #386, 1000.000000000000000 ) ;
#230 = ORIENTED_EDGE ( 'NONE', *, *, #228, .F. ) ;
#231 = FACE_OUTER_BOUND ( 'NONE', #351, .T. ) ;
#232 =( LENGTH_UNIT ( ) NAMED_UNIT ( * ) SI_UNIT ( .MILLI., .METRE. ) );
#233 = EDGE_LOOP ( 'NONE', ( #175, #341 ) ) ;
#234 = AXIS2_PLACEMENT_3D ( 'NONE', #167, #186, #179 ) ;
#235 =( NAMED_UNIT ( * ) SI_UNIT ( $, .STERADIAN. ) SOLID_ANGLE_UNIT ( ) );
#236 = ADVANCED_FACE ( 'NONE', ( #141 ), #176, .F. ) ;
#237 = PLANE ( 'NONE',  #189 ) ;
#238 = DIRECTION ( 'NONE',  ( 0.0000000000000000000, 0.0000000000000000000, -1.000000000000000000 ) ) ;
#239 = VECTOR ( 'NONE', #329, 1000.000000000000000 ) ;
#240 = ADVANCED_FACE ( 'NONE', ( #298 ), #199, .F. ) ;
#241 = DIRECTION ( 'NONE',  ( 1.000000000000000000, 0.0000000000000000000, 0.0000000000000000000 ) ) ;
#242 = EDGE_CURVE ( 'NONE', #157, #390, #122, .T. ) ;
#243 = ADVANCED_FACE ( 'NONE', ( #225, #291 ), #166, .F. ) ;
#244 = CARTESIAN_POINT ( 'NONE',  ( 0.0000000000000000000, 0.0000000000000000000, 2.000000000000000000 ) ) ;
#245 = CARTESIAN_POINT ( 'NONE',  ( 2.524999999999999500, 0.0000000000000000000, 2.000000000000001800 ) ) ;
#246 = EDGE_CURVE ( 'NONE', #370, #21, #33, .T. ) ;
#247 =( NAMED_UNIT ( * ) SI_UNIT ( $, .STERADIAN. ) SOLID_ANGLE_UNIT ( ) );
#248 =( NAMED_UNIT ( * ) PLANE_ANGLE_UNIT ( ) SI_UNIT ( $, .RADIAN. ) );
#249 = ORIENTED_EDGE ( 'NONE', *, *, #270, .F. ) ;
#250 =( LENGTH_UNIT ( ) NAMED_UNIT ( * ) SI_UNIT ( .MILLI., .METRE. ) );
#251 = FACE_OUTER_BOUND ( 'NONE', #339, .T. ) ;
#252 =( LENGTH_UNIT ( ) NAMED_UNIT ( * ) SI_UNIT ( .MILLI., .METRE. ) );
#253 = EDGE_CURVE ( 'NONE', #121, #107, #41, .T. ) ;
#254 = SURFACE_STYLE_USAGE ( .BOTH. , #255 ) ;
#255 = SURFACE_SIDE_STYLE ('',( #184 ) ) ;
#256 = EDGE_CURVE ( 'NONE', #21, #157, #112, .T. ) ;
#257 = STYLED_ITEM ( 'NONE', ( #109 ), #313 ) ;
#258 = ORIENTED_EDGE ( 'NONE', *, *, #246, .F. ) ;
#259 = ORIENTED_EDGE ( 'NONE', *, *, #177, .T. ) ;
#260 = COLOUR_RGB ( '',0.8941176470588234600, 0.9137254901960784000, 0.9294117647058823800 ) ;
#261 = COLOUR_RGB ( '',0.8941176470588234600, 0.9137254901960784000, 0.9294117647058823800 ) ;
#262 = ORIENTED_EDGE ( 'NONE', *, *, #148, .F. ) ;
#263 = VECTOR ( 'NONE', #79, 1000.000000000000000 ) ;
#264 = DIRECTION ( 'NONE',  ( -0.0000000000000000000, -0.0000000000000000000, -1.000000000000000000 ) ) ;
#265 = VERTEX_POINT ( 'NONE', #83 ) ;
#266 = DIRECTION ( 'NONE',  ( -0.0000000000000000000, -0.0000000000000000000, 1.000000000000000000 ) ) ;
#267 = EDGE_CURVE ( 'NONE', #209, #157, #352, .T. ) ;
#268 = AXIS2_PLACEMENT_3D ( 'NONE', #26, #18, #385 ) ;
#269 = CARTESIAN_POINT ( 'NONE',  ( -4.999999999999999100, -7.500000000000000900, 2.000000000000000000 ) ) ;
#270 = EDGE_CURVE ( 'NONE', #107, #310, #360, .T. ) ;
#271 = FILL_AREA_STYLE_COLOUR ( '', #365 ) ;
#272 = DIRECTION ( 'NONE',  ( -0.7071067811865463500, 0.0000000000000000000, -0.7071067811865487900 ) ) ;
#273 = PRESENTATION_STYLE_ASSIGNMENT (( #254 ) ) ;
#274 = ORIENTED_EDGE ( 'NONE', *, *, #188, .T. ) ;
#275 = FILL_AREA_STYLE ('',( #271 ) ) ;
#276 = EDGE_LOOP ( 'NONE', ( #197, #127, #5, #51 ) ) ;
#277 = VECTOR ( 'NONE', #165, 1000.000000000000000 ) ;
#278 = UNCERTAINTY_MEASURE_WITH_UNIT (LENGTH_MEASURE( 1.000000000000000100E-005 ), #4, 'distance_accuracy_value', 'NONE');
#279 = AXIS2_PLACEMENT_3D ( 'NONE', #358, #350, #355 ) ;
#280 = ORIENTED_EDGE ( 'NONE', *, *, #57, .F. ) ;
#281 = CARTESIAN_POINT ( 'NONE',  ( -2.099999999999999600, 0.0000000000000000000, -1.575000000000000000 ) ) ;
#282 = DIRECTION ( 'NONE',  ( 1.000000000000000000, 0.0000000000000000000, 0.0000000000000000000 ) ) ;
#283 = EDGE_CURVE ( 'NONE', #185, #91, #190, .T. ) ;
#284 = DIRECTION ( 'NONE',  ( -0.0000000000000000000, -0.0000000000000000000, 1.000000000000000000 ) ) ;
#285 = CARTESIAN_POINT ( 'NONE',  ( 0.0000000000000000000, 0.0000000000000000000, 2.000000000000001800 ) ) ;
#286 =( GEOMETRIC_REPRESENTATION_CONTEXT ( 3 ) GLOBAL_UNCERTAINTY_ASSIGNED_CONTEXT ( ( #114 ) ) GLOBAL_UNIT_ASSIGNED_CONTEXT ( ( #232, #160, #235 ) ) REPRESENTATION_CONTEXT ( 'NONE', 'WORKASPACE' ) );
#287 = DIRECTION ( 'NONE',  ( 1.000000000000000000, 0.0000000000000000000, 0.0000000000000000000 ) ) ;
#288 = VECTOR ( 'NONE', #333, 1000.000000000000000 ) ;
#289 = ORIENTED_EDGE ( 'NONE', *, *, #57, .T. ) ;
#290 = COLOUR_RGB ( '',0.8941176470588234600, 0.9137254901960784000, 0.9294117647058823800 ) ;
#291 = FACE_OUTER_BOUND ( 'NONE', #173, .T. ) ;
#292 = ORIENTED_EDGE ( 'NONE', *, *, #403, .F. ) ;
#293 = EDGE_CURVE ( 'NONE', #317, #142, #19, .T. ) ;
#294 = UNCERTAINTY_MEASURE_WITH_UNIT (LENGTH_MEASURE( 1.000000000000000100E-005 ), #252, 'distance_accuracy_value', 'NONE');
#295 =( GEOMETRIC_REPRESENTATION_CONTEXT ( 3 ) GLOBAL_UNCERTAINTY_ASSIGNED_CONTEXT ( ( #278 ) ) GLOBAL_UNIT_ASSIGNED_CONTEXT ( ( #4, #404, #376 ) ) REPRESENTATION_CONTEXT ( 'NONE', 'WORKASPACE' ) );
#296 = LINE ( 'NONE', #337, #120 ) ;
#297 = ORIENTED_EDGE ( 'NONE', *, *, #81, .T. ) ;
#298 = FACE_OUTER_BOUND ( 'NONE', #32, .T. ) ;
#299 = EDGE_LOOP ( 'NONE', ( #249, #61 ) ) ;
#300 = MECHANICAL_DESIGN_GEOMETRIC_PRESENTATION_REPRESENTATION (  '', ( #322 ), #295 ) ;
#301 = CARTESIAN_POINT ( 'NONE',  ( 0.0000000000000000000, 0.0000000000000000000, 2.000000000000001800 ) ) ;
#302 = CARTESIAN_POINT ( 'NONE',  ( 5.000000000000000900, -7.499999999999999100, 2.000000000000000000 ) ) ;
#303 = ADVANCED_FACE ( 'NONE', ( #90 ), #76, .F. ) ;
#304 = VECTOR ( 'NONE', #371, 1000.000000000000000 ) ;
#305 = PRESENTATION_LAYER_ASSIGNMENT (  '', '', ( #322 ) ) ;
#306 = ORIENTED_EDGE ( 'NONE', *, *, #283, .T. ) ;
#307 = DIRECTION ( 'NONE',  ( 1.000000000000000000, 0.0000000000000000000, 0.0000000000000000000 ) ) ;
#308 = DIRECTION ( 'NONE',  ( -0.0000000000000000000, -0.0000000000000000000, 1.000000000000000000 ) ) ;
#309 = LINE ( 'NONE', #201, #65 ) ;
#310 = VERTEX_POINT ( 'NONE', #52 ) ;
#311 = CARTESIAN_POINT ( 'NONE',  ( 0.0000000000000000000, 0.0000000000000000000, 1.575000000000000000 ) ) ;
#312 = DIRECTION ( 'NONE',  ( -0.0000000000000000000, -0.0000000000000000000, 1.000000000000000000 ) ) ;
#313 = ADVANCED_BREP_SHAPE_REPRESENTATION ( '096P0151004M5', ( #43, #151 ), #286 ) ;
#314 = CARTESIAN_POINT ( 'NONE',  ( -2.099999999999999600, 0.0000000000000000000, -1.575000000000000000 ) ) ;
#315 = AXIS2_PLACEMENT_3D ( 'NONE', #47, #12, #103 ) ;
#316 = FACE_OUTER_BOUND ( 'NONE', #276, .T. ) ;
#317 = VERTEX_POINT ( 'NONE', #45 ) ;
#318 = FILL_AREA_STYLE_COLOUR ( '', #290 ) ;
#319 = CARTESIAN_POINT ( 'NONE',  ( 5.000000000000000900, -7.499999999999999100, 2.000000000000000000 ) ) ;
#320 = VECTOR ( 'NONE', #264, 1000.000000000000000 ) ;
#321 = CARTESIAN_POINT ( 'NONE',  ( 0.0000000000000000000, 0.0000000000000000000, 0.0000000000000000000 ) ) ;
#322 = STYLED_ITEM ( 'NONE', ( #180 ), #343 ) ;
#323 = CARTESIAN_POINT ( 'NONE',  ( -4.999999999999999100, 7.499999999999999100, -2.000000000000000000 ) ) ;
#324 = EDGE_LOOP ( 'NONE', ( #80, #405, #230, #95 ) ) ;
#325 = LINE ( 'NONE', #336, #239 ) ;
#326 = CARTESIAN_POINT ( 'NONE',  ( 5.000000000000000900, -7.499999999999999100, 2.000000000000000000 ) ) ;
#327 = AXIS2_PLACEMENT_3D ( 'NONE', #29, #87, #15 ) ;
#328 = CARTESIAN_POINT ( 'NONE',  ( -4.999999999999999100, -7.500000000000000900, 2.000000000000000000 ) ) ;
#329 = DIRECTION ( 'NONE',  ( -0.0000000000000000000, -1.000000000000000000, -0.0000000000000000000 ) ) ;
#330 = ORIENTED_EDGE ( 'NONE', *, *, #164, .T. ) ;
#331 = DIRECTION ( 'NONE',  ( -0.0000000000000000000, -0.0000000000000000000, 1.000000000000000000 ) ) ;
#332 = EDGE_CURVE ( 'NONE', #17, #390, #174, .T. ) ;
#333 = DIRECTION ( 'NONE',  ( 1.000000000000000000, 1.734723475976807100E-016, -0.0000000000000000000 ) ) ;
#334 = SHAPE_DEFINITION_REPRESENTATION ( #395, #313 ) ;
#335 =( NAMED_UNIT ( * ) SI_UNIT ( $, .STERADIAN. ) SOLID_ANGLE_UNIT ( ) );
#336 = CARTESIAN_POINT ( 'NONE',  ( -4.999999999999999100, -7.500000000000000900, 2.000000000000000000 ) ) ;
#337 = CARTESIAN_POINT ( 'NONE',  ( 2.100000000000000100, 0.0000000000000000000, 2.000000000000000000 ) ) ;
#338 = PRODUCT ( '096P0151004M5', '096P0151004M5', '', ( #96 ) ) ;
#339 = EDGE_LOOP ( 'NONE', ( #289, #138, #406, #353 ) ) ;
#340 = AXIS2_PLACEMENT_3D ( 'NONE', #75, #64, #62 ) ;
#341 = ORIENTED_EDGE ( 'NONE', *, *, #35, .T. ) ;
#342 = DIRECTION ( 'NONE',  ( 0.7071067811865463500, 8.659560562354919300E-017, -0.7071067811865487900 ) ) ;
#343 = ADVANCED_FACE ( 'NONE', ( #10 ), #139, .F. ) ;
#344 = VECTOR ( 'NONE', #23, 1000.000000000000000 ) ;
#345 = CARTESIAN_POINT ( 'NONE',  ( 5.000000000000000900, -7.499999999999999100, 2.000000000000000000 ) ) ;
#346 = AXIS2_PLACEMENT_3D ( 'NONE', #153, #136, #73 ) ;
#347 = DIRECTION ( 'NONE',  ( -0.0000000000000000000, -0.0000000000000000000, -1.000000000000000000 ) ) ;
#348 = SURFACE_STYLE_FILL_AREA ( #367 ) ;
#349 = AXIS2_PLACEMENT_3D ( 'NONE', #58, #56, #53 ) ;
#350 = DIRECTION ( 'NONE',  ( 0.0000000000000000000, 0.0000000000000000000, -1.000000000000000000 ) ) ;
#351 = EDGE_LOOP ( 'NONE', ( #163, #82, #88, #66 ) ) ;
#352 = LINE ( 'NONE', #85, #263 ) ;
#353 = ORIENTED_EDGE ( 'NONE', *, *, #228, .T. ) ;
#354 = ADVANCED_FACE ( 'NONE', ( #392 ), #224, .F. ) ;
#355 = DIRECTION ( 'NONE',  ( -1.000000000000000000, 0.0000000000000000000, 0.0000000000000000000 ) ) ;
#356 = FACE_OUTER_BOUND ( 'NONE', #42, .T. ) ;
#357 = ORIENTED_EDGE ( 'NONE', *, *, #148, .T. ) ;
#358 = CARTESIAN_POINT ( 'NONE',  ( 0.0000000000000000000, 0.0000000000000000000, -1.575000000000000000 ) ) ;
#359 = ORIENTED_EDGE ( 'NONE', *, *, #146, .F. ) ;
#360 = CIRCLE ( 'NONE', #340, 2.524999999999999500 ) ;
#361 = ORIENTED_EDGE ( 'NONE', *, *, #267, .T. ) ;
#362 = CARTESIAN_POINT ( 'NONE',  ( 5.000000000000000900, 7.500000000000000000, -2.000000000000000000 ) ) ;
#363 = SURFACE_STYLE_USAGE ( .BOTH. , #364 ) ;
#364 = SURFACE_SIDE_STYLE ('',( #348 ) ) ;
#365 = COLOUR_RGB ( '',0.8941176470588234600, 0.9137254901960784000, 0.9294117647058823800 ) ;
#366 = ORIENTED_EDGE ( 'NONE', *, *, #332, .T. ) ;
#367 = FILL_AREA_STYLE ('',( #9 ) ) ;
#368 = CARTESIAN_POINT ( 'NONE',  ( -2.524999999999999500, 3.092233167847066000E-016, 2.000000000000001800 ) ) ;
#369 = VECTOR ( 'NONE', #144, 1000.000000000000000 ) ;
#370 = VERTEX_POINT ( 'NONE', #326 ) ;
#371 = DIRECTION ( 'NONE',  ( -0.0000000000000000000, -0.0000000000000000000, 1.000000000000000000 ) ) ;
#372 = CARTESIAN_POINT ( 'NONE',  ( 2.099999999999999600, 2.571758278209441000E-016, -1.575000000000000000 ) ) ;
#373 = CARTESIAN_POINT ( 'NONE',  ( 0.0000000000000000000, 0.0000000000000000000, -1.575000000000000000 ) ) ;
#374 = DIRECTION ( 'NONE',  ( 1.000000000000000000, 0.0000000000000000000, 0.0000000000000000000 ) ) ;
#375 = DIRECTION ( 'NONE',  ( -0.0000000000000000000, -0.0000000000000000000, 1.000000000000000000 ) ) ;
#376 =( NAMED_UNIT ( * ) SI_UNIT ( $, .STERADIAN. ) SOLID_ANGLE_UNIT ( ) );
#377 = VECTOR ( 'NONE', #342, 999.9999999999998900 ) ;
#378 = ORIENTED_EDGE ( 'NONE', *, *, #105, .F. ) ;
#379 = CONICAL_SURFACE ( 'NONE', #78, 2.099999999999999600, 0.7853981633974466100 ) ;
#380 = ORIENTED_EDGE ( 'NONE', *, *, #253, .F. ) ;
#381 = LINE ( 'NONE', #397, #304 ) ;
#382 = EDGE_LOOP ( 'NONE', ( #297, #292, #280, #366 ) ) ;
#383 = CYLINDRICAL_SURFACE ( 'NONE', #84, 2.100000000000000100 ) ;
#384 = ORIENTED_EDGE ( 'NONE', *, *, #227, .F. ) ;
#385 = DIRECTION ( 'NONE',  ( 1.000000000000000000, 0.0000000000000000000, 0.0000000000000000000 ) ) ;
#386 = DIRECTION ( 'NONE',  ( -0.7071067811865453500, 8.659560562354907000E-017, 0.7071067811865496800 ) ) ;
#387 = CARTESIAN_POINT ( 'NONE',  ( 2.524999999999999000, 3.092233167847065100E-016, -2.000000000000000900 ) ) ;
#388 = DIRECTION ( 'NONE',  ( 1.000000000000000000, 0.0000000000000000000, 0.0000000000000000000 ) ) ;
#389 = LINE ( 'NONE', #140, #399 ) ;
#390 = VERTEX_POINT ( 'NONE', #323 ) ;
#391 = ORIENTED_EDGE ( 'NONE', *, *, #267, .F. ) ;
#392 = FACE_OUTER_BOUND ( 'NONE', #89, .T. ) ;
#393 = DIRECTION ( 'NONE',  ( -0.0000000000000000000, -0.0000000000000000000, 1.000000000000000000 ) ) ;
#394 = CARTESIAN_POINT ( 'NONE',  ( 0.0000000000000000000, 0.0000000000000000000, 1.575000000000000000 ) ) ;
#395 = PRODUCT_DEFINITION_SHAPE ( 'NONE', 'NONE',  #115 ) ;
#396 = AXIS2_PLACEMENT_3D ( 'NONE', #211, #172, #168 ) ;
#397 = CARTESIAN_POINT ( 'NONE',  ( -2.100000000000000100, 2.571758278209441500E-016, 2.000000000000000000 ) ) ;
#398 = CARTESIAN_POINT ( 'NONE',  ( 2.100000000000000100, 0.0000000000000000000, 1.575000000000000000 ) ) ;
#399 = VECTOR ( 'NONE', #210, 1000.000000000000000 ) ;
#400 = DIRECTION ( 'NONE',  ( 1.000000000000000000, 0.0000000000000000000, 0.0000000000000000000 ) ) ;
#401 = DIRECTION ( 'NONE',  ( -0.0000000000000000000, -0.0000000000000000000, 1.000000000000000000 ) ) ;
#402 = DIRECTION ( 'NONE',  ( -1.000000000000000000, -1.734723475976807100E-016, 0.0000000000000000000 ) ) ;
#403 = EDGE_CURVE ( 'NONE', #200, #265, #63, .T. ) ;
#404 =( NAMED_UNIT ( * ) PLANE_ANGLE_UNIT ( ) SI_UNIT ( $, .RADIAN. ) );
#405 = ORIENTED_EDGE ( 'NONE', *, *, #332, .F. ) ;
#406 = ORIENTED_EDGE ( 'NONE', *, *, #246, .T. ) ;
ENDSEC;
END-ISO-10303-21;
