ISO-10303-21;
HEADER;
FILE_DESCRIPTION (( 'STEP AP214' ),
    '1' );
FILE_NAME ('096p01409025m5.STEP',
    '2014-08-18T12:25:59',
    ( '' ),
    ( '' ),
    'SwSTEP 2.0',
    'SolidWorks 2014',
    '' );
FILE_SCHEMA (( 'AUTOMOTIVE_DESIGN' ));
ENDSEC;

DATA;
#1 = VECTOR ( 'NONE', #143, 1000.000000000000000 ) ;
#2 = VECTOR ( 'NONE', #135, 1000.000000000000000 ) ;
#3 = EDGE_LOOP ( 'NONE', ( #23, #140, #19, #207 ) ) ;
#4 = AXIS2_PLACEMENT_3D ( 'NONE', #86, #85, #84 ) ;
#5 = FACE_OUTER_BOUND ( 'NONE', #3, .T. ) ;
#6 = ORIENTED_EDGE ( 'NONE', *, *, #159, .F. ) ;
#7 =( NAMED_UNIT ( * ) SI_UNIT ( $, .STERADIAN. ) SOLID_ANGLE_UNIT ( ) );
#8 = AXIS2_PLACEMENT_3D ( 'NONE', #154, #153, #152 ) ;
#9 = LINE ( 'NONE', #147, #30 ) ;
#10 = UNCERTAINTY_MEASURE_WITH_UNIT (LENGTH_MEASURE( 1.000000000000000100E-005 ), #29, 'distance_accuracy_value', 'NONE');
#11 = ORIENTED_EDGE ( 'NONE', *, *, #228, .F. ) ;
#12 = PRODUCT_DEFINITION_SHAPE ( 'NONE', 'NONE',  #127 ) ;
#13 = LINE ( 'NONE', #210, #237 ) ;
#14 = CIRCLE ( 'NONE', #271, 2.000000000000000000 ) ;
#15 =( GEOMETRIC_REPRESENTATION_CONTEXT ( 3 ) GLOBAL_UNCERTAINTY_ASSIGNED_CONTEXT ( ( #141 ) ) GLOBAL_UNIT_ASSIGNED_CONTEXT ( ( #64, #59, #56 ) ) REPRESENTATION_CONTEXT ( 'NONE', 'WORKASPACE' ) );
#16 = CARTESIAN_POINT ( 'NONE',  ( 6.500000000000000900, 7.000000000000000000, 2.500000000000000000 ) ) ;
#17 = PRODUCT_DEFINITION_CONTEXT ( 'detailed design', #43, 'design' ) ;
#18 = VECTOR ( 'NONE', #124, 1000.000000000000000 ) ;
#19 = ORIENTED_EDGE ( 'NONE', *, *, #78, .F. ) ;
#20 = MANIFOLD_SOLID_BREP ( 'Basis-Linear austragen', #262 ) ;
#21 = ORIENTED_EDGE ( 'NONE', *, *, #217, .F. ) ;
#22 = AXIS2_PLACEMENT_3D ( 'NONE', #74, #68, #66 ) ;
#23 = ORIENTED_EDGE ( 'NONE', *, *, #159, .T. ) ;
#24 = EDGE_LOOP ( 'NONE', ( #144, #264, #203, #89 ) ) ;
#25 = STYLED_ITEM ( 'NONE', ( #146 ), #272 ) ;
#26 = ADVANCED_FACE ( 'NONE', ( #5 ), #102, .F. ) ;
#27 =( NAMED_UNIT ( * ) PLANE_ANGLE_UNIT ( ) SI_UNIT ( $, .RADIAN. ) );
#28 = PRESENTATION_LAYER_ASSIGNMENT (  '', '', ( #25 ) ) ;
#29 =( LENGTH_UNIT ( ) NAMED_UNIT ( * ) SI_UNIT ( .MILLI., .METRE. ) );
#30 = VECTOR ( 'NONE', #133, 1000.000000000000000 ) ;
#31 = ORIENTED_EDGE ( 'NONE', *, *, #205, .T. ) ;
#32 = SURFACE_STYLE_USAGE ( .BOTH. , #35 ) ;
#33 = EDGE_LOOP ( 'NONE', ( #275, #187, #201, #256 ) ) ;
#34 = FACE_OUTER_BOUND ( 'NONE', #186, .T. ) ;
#35 = SURFACE_SIDE_STYLE ('',( #231 ) ) ;
#36 = ORIENTED_EDGE ( 'NONE', *, *, #182, .T. ) ;
#37 = FILL_AREA_STYLE ('',( #200 ) ) ;
#38 = PRODUCT ( '096p01409025m5', '096p01409025m5', '', ( #46 ) ) ;
#39 = SHAPE_DEFINITION_REPRESENTATION ( #12, #272 ) ;
#40 = LINE ( 'NONE', #151, #1 ) ;
#41 = LINE ( 'NONE', #195, #2 ) ;
#42 = APPLICATION_PROTOCOL_DEFINITION ( 'draft international standard', 'automotive_design', 1998, #43 ) ;
#43 = APPLICATION_CONTEXT ( 'automotive_design' ) ;
#44 = VECTOR ( 'NONE', #170, 1000.000000000000000 ) ;
#45 = VECTOR ( 'NONE', #118, 1000.000000000000000 ) ;
#46 = PRODUCT_CONTEXT ( 'NONE', #51, 'mechanical' ) ;
#47 = DIRECTION ( 'NONE',  ( 1.000000000000000000, 0.0000000000000000000, 0.0000000000000000000 ) ) ;
#48 = FILL_AREA_STYLE ('',( #49 ) ) ;
#49 = FILL_AREA_STYLE_COLOUR ( '', #198 ) ;
#50 =( GEOMETRIC_REPRESENTATION_CONTEXT ( 3 ) GLOBAL_UNCERTAINTY_ASSIGNED_CONTEXT ( ( #10 ) ) GLOBAL_UNIT_ASSIGNED_CONTEXT ( ( #29, #27, #7 ) ) REPRESENTATION_CONTEXT ( 'NONE', 'WORKASPACE' ) );
#51 = APPLICATION_CONTEXT ( 'automotive_design' ) ;
#52 = ORIENTED_EDGE ( 'NONE', *, *, #145, .T. ) ;
#53 = APPLICATION_PROTOCOL_DEFINITION ( 'draft international standard', 'automotive_design', 1998, #51 ) ;
#54 = LINE ( 'NONE', #156, #172 ) ;
#55 = VECTOR ( 'NONE', #157, 1000.000000000000000 ) ;
#56 =( NAMED_UNIT ( * ) SI_UNIT ( $, .STERADIAN. ) SOLID_ANGLE_UNIT ( ) );
#57 = VERTEX_POINT ( 'NONE', #188 ) ;
#58 = DIRECTION ( 'NONE',  ( -1.000000000000000000, -1.224606353822377300E-016, 0.0000000000000000000 ) ) ;
#59 =( NAMED_UNIT ( * ) PLANE_ANGLE_UNIT ( ) SI_UNIT ( $, .RADIAN. ) );
#60 = AXIS2_PLACEMENT_3D ( 'NONE', #258, #252, #261 ) ;
#61 = EDGE_LOOP ( 'NONE', ( #31, #245, #235, #136 ) ) ;
#62 = EDGE_CURVE ( 'NONE', #71, #257, #41, .T. ) ;
#63 = CARTESIAN_POINT ( 'NONE',  ( 0.0000000000000000000, 0.0000000000000000000, 0.0000000000000000000 ) ) ;
#64 =( LENGTH_UNIT ( ) NAMED_UNIT ( * ) SI_UNIT ( .MILLI., .METRE. ) );
#65 = EDGE_LOOP ( 'NONE', ( #52, #83, #221, #169 ) ) ;
#66 = DIRECTION ( 'NONE',  ( -1.239088197126291100E-016, -1.000000000000000000, 0.0000000000000000000 ) ) ;
#67 = VERTEX_POINT ( 'NONE', #155 ) ;
#68 = DIRECTION ( 'NONE',  ( -1.000000000000000000, 1.239088197126291100E-016, 0.0000000000000000000 ) ) ;
#69 = CARTESIAN_POINT ( 'NONE',  ( 9.000000000000000000, 14.00000000000000000, 0.0000000000000000000 ) ) ;
#70 = ORIENTED_EDGE ( 'NONE', *, *, #228, .T. ) ;
#71 = VERTEX_POINT ( 'NONE', #82 ) ;
#72 = CARTESIAN_POINT ( 'NONE',  ( 0.0000000000000000000, 0.0000000000000000000, 2.500000000000000000 ) ) ;
#73 = UNCERTAINTY_MEASURE_WITH_UNIT (LENGTH_MEASURE( 1.000000000000000100E-005 ), #107, 'distance_accuracy_value', 'NONE');
#74 = CARTESIAN_POINT ( 'NONE',  ( 8.999999999999998200, 1.102145718440139300E-015, 2.500000000000000000 ) ) ;
#75 = PLANE ( 'NONE',  #22 ) ;
#76 = ORIENTED_EDGE ( 'NONE', *, *, #240, .F. ) ;
#77 = DIRECTION ( 'NONE',  ( 0.0000000000000000000, 0.0000000000000000000, 1.000000000000000000 ) ) ;
#78 = EDGE_CURVE ( 'NONE', #57, #71, #232, .T. ) ;
#79 = ORIENTED_EDGE ( 'NONE', *, *, #215, .T. ) ;
#80 = DIRECTION ( 'NONE',  ( -1.224606353822377300E-016, 1.000000000000000000, 0.0000000000000000000 ) ) ;
#81 = ORIENTED_EDGE ( 'NONE', *, *, #211, .F. ) ;
#82 = CARTESIAN_POINT ( 'NONE',  ( 0.0000000000000000000, 14.00000000000000000, 2.500000000000000000 ) ) ;
#83 = ORIENTED_EDGE ( 'NONE', *, *, #215, .F. ) ;
#84 = DIRECTION ( 'NONE',  ( 1.000000000000000000, 0.0000000000000000000, 0.0000000000000000000 ) ) ;
#85 = DIRECTION ( 'NONE',  ( 0.0000000000000000000, 0.0000000000000000000, 1.000000000000000000 ) ) ;
#86 = CARTESIAN_POINT ( 'NONE',  ( 4.500000000000000900, 7.000000000000000000, 2.500000000000000000 ) ) ;
#87 = CARTESIAN_POINT ( 'NONE',  ( 6.500000000000000900, 7.000000000000000000, 0.0000000000000000000 ) ) ;
#88 = CARTESIAN_POINT ( 'NONE',  ( 8.999999999999998200, 1.102145718440139300E-015, 0.0000000000000000000 ) ) ;
#89 = ORIENTED_EDGE ( 'NONE', *, *, #78, .T. ) ;
#90 = ORIENTED_EDGE ( 'NONE', *, *, #166, .T. ) ;
#91 = DIRECTION ( 'NONE',  ( -0.0000000000000000000, -0.0000000000000000000, -1.000000000000000000 ) ) ;
#92 = VERTEX_POINT ( 'NONE', #132 ) ;
#93 = PLANE ( 'NONE',  #113 ) ;
#94 = VERTEX_POINT ( 'NONE', #88 ) ;
#95 = CARTESIAN_POINT ( 'NONE',  ( 0.0000000000000000000, 0.0000000000000000000, 2.500000000000000000 ) ) ;
#96 = DIRECTION ( 'NONE',  ( 1.000000000000000000, 0.0000000000000000000, 0.0000000000000000000 ) ) ;
#97 = FACE_OUTER_BOUND ( 'NONE', #249, .T. ) ;
#98 = DIRECTION ( 'NONE',  ( 0.0000000000000000000, 0.0000000000000000000, 1.000000000000000000 ) ) ;
#99 = CARTESIAN_POINT ( 'NONE',  ( 4.500000000000000900, 7.000000000000000000, 2.500000000000000000 ) ) ;
#100 = CARTESIAN_POINT ( 'NONE',  ( 0.0000000000000000000, 14.00000000000000000, 0.0000000000000000000 ) ) ;
#101 = FACE_OUTER_BOUND ( 'NONE', #24, .T. ) ;
#102 = PLANE ( 'NONE',  #255 ) ;
#103 = VERTEX_POINT ( 'NONE', #16 ) ;
#104 = CARTESIAN_POINT ( 'NONE',  ( 0.0000000000000000000, 0.0000000000000000000, 2.500000000000000000 ) ) ;
#105 = DIRECTION ( 'NONE',  ( -1.000000000000000000, -0.0000000000000000000, -0.0000000000000000000 ) ) ;
#106 = VERTEX_POINT ( 'NONE', #100 ) ;
#107 =( LENGTH_UNIT ( ) NAMED_UNIT ( * ) SI_UNIT ( .MILLI., .METRE. ) );
#108 = ADVANCED_FACE ( 'NONE', ( #34 ), #274, .F. ) ;
#109 = DIRECTION ( 'NONE',  ( 1.239088197126291100E-016, 1.000000000000000000, 0.0000000000000000000 ) ) ;
#110 = VECTOR ( 'NONE', #148, 1000.000000000000000 ) ;
#111 = FACE_OUTER_BOUND ( 'NONE', #193, .T. ) ;
#112 = LINE ( 'NONE', #218, #268 ) ;
#113 = AXIS2_PLACEMENT_3D ( 'NONE', #95, #80, #58 ) ;
#114 = ORIENTED_EDGE ( 'NONE', *, *, #145, .F. ) ;
#115 = CARTESIAN_POINT ( 'NONE',  ( 9.000000000000000000, 14.00000000000000000, 2.500000000000000000 ) ) ;
#116 = ADVANCED_FACE ( 'NONE', ( #220 ), #163, .F. ) ;
#117 = ORIENTED_EDGE ( 'NONE', *, *, #225, .F. ) ;
#118 = DIRECTION ( 'NONE',  ( -0.0000000000000000000, -0.0000000000000000000, -1.000000000000000000 ) ) ;
#119 = ADVANCED_FACE ( 'NONE', ( #173 ), #243, .F. ) ;
#120 = CIRCLE ( 'NONE', #8, 2.000000000000000000 ) ;
#121 = FACE_OUTER_BOUND ( 'NONE', #65, .T. ) ;
#122 = CARTESIAN_POINT ( 'NONE',  ( 0.0000000000000000000, 14.00000000000000000, 2.500000000000000000 ) ) ;
#123 = ORIENTED_EDGE ( 'NONE', *, *, #205, .F. ) ;
#124 = DIRECTION ( 'NONE',  ( -0.0000000000000000000, -0.0000000000000000000, -1.000000000000000000 ) ) ;
#125 = CARTESIAN_POINT ( 'NONE',  ( 8.999999999999998200, 1.102145718440139300E-015, 0.0000000000000000000 ) ) ;
#126 = ADVANCED_FACE ( 'NONE', ( #101, #214 ), #229, .F. ) ;
#127 = PRODUCT_DEFINITION ( 'UNKNOWN', '', #134, #17 ) ;
#128 = CIRCLE ( 'NONE', #263, 2.000000000000000000 ) ;
#129 = LINE ( 'NONE', #139, #55 ) ;
#130 = CARTESIAN_POINT ( 'NONE',  ( 8.999999999999998200, 1.102145718440139300E-015, 2.500000000000000000 ) ) ;
#131 = ADVANCED_FACE ( 'NONE', ( #97, #208 ), #223, .T. ) ;
#132 = CARTESIAN_POINT ( 'NONE',  ( 8.999999999999998200, 1.102145718440139300E-015, 2.500000000000000000 ) ) ;
#133 = DIRECTION ( 'NONE',  ( 1.000000000000000000, 1.224606353822377300E-016, 0.0000000000000000000 ) ) ;
#134 = PRODUCT_DEFINITION_FORMATION_WITH_SPECIFIED_SOURCE ( 'ANY', '', #38, .NOT_KNOWN. ) ;
#135 = DIRECTION ( 'NONE',  ( -0.0000000000000000000, -1.000000000000000000, -0.0000000000000000000 ) ) ;
#136 = ORIENTED_EDGE ( 'NONE', *, *, #171, .T. ) ;
#137 = EDGE_CURVE ( 'NONE', #103, #250, #112, .T. ) ;
#138 = PRODUCT_RELATED_PRODUCT_CATEGORY ( 'part', '', ( #38 ) ) ;
#139 = CARTESIAN_POINT ( 'NONE',  ( 8.999999999999998200, 1.102145718440139300E-015, 2.500000000000000000 ) ) ;
#140 = ORIENTED_EDGE ( 'NONE', *, *, #171, .F. ) ;
#141 = UNCERTAINTY_MEASURE_WITH_UNIT (LENGTH_MEASURE( 1.000000000000000100E-005 ), #64, 'distance_accuracy_value', 'NONE');
#142 = CARTESIAN_POINT ( 'NONE',  ( 2.500000000000000000, 7.000000000000000000, 2.500000000000000000 ) ) ;
#143 = DIRECTION ( 'NONE',  ( -0.0000000000000000000, -1.000000000000000000, -0.0000000000000000000 ) ) ;
#144 = ORIENTED_EDGE ( 'NONE', *, *, #62, .T. ) ;
#145 = EDGE_CURVE ( 'NONE', #160, #94, #246, .T. ) ;
#146 = PRESENTATION_STYLE_ASSIGNMENT (( #32 ) ) ;
#147 = CARTESIAN_POINT ( 'NONE',  ( 0.0000000000000000000, 0.0000000000000000000, 2.500000000000000000 ) ) ;
#148 = DIRECTION ( 'NONE',  ( -0.0000000000000000000, -0.0000000000000000000, -1.000000000000000000 ) ) ;
#149 = CARTESIAN_POINT ( 'NONE',  ( 2.500000000000000000, 7.000000000000000000, 0.0000000000000000000 ) ) ;
#150 = ORIENTED_EDGE ( 'NONE', *, *, #137, .T. ) ;
#151 = CARTESIAN_POINT ( 'NONE',  ( 0.0000000000000000000, 0.0000000000000000000, 0.0000000000000000000 ) ) ;
#152 = DIRECTION ( 'NONE',  ( 1.000000000000000000, 0.0000000000000000000, 0.0000000000000000000 ) ) ;
#153 = DIRECTION ( 'NONE',  ( 0.0000000000000000000, 0.0000000000000000000, 1.000000000000000000 ) ) ;
#154 = CARTESIAN_POINT ( 'NONE',  ( 4.500000000000000900, 7.000000000000000000, 0.0000000000000000000 ) ) ;
#155 = CARTESIAN_POINT ( 'NONE',  ( 2.500000000000000000, 7.000000000000000000, 2.500000000000000000 ) ) ;
#156 = CARTESIAN_POINT ( 'NONE',  ( 0.0000000000000000000, 0.0000000000000000000, 2.500000000000000000 ) ) ;
#157 = DIRECTION ( 'NONE',  ( 1.239088197126291100E-016, 1.000000000000000000, 0.0000000000000000000 ) ) ;
#158 =( NAMED_UNIT ( * ) PLANE_ANGLE_UNIT ( ) SI_UNIT ( $, .RADIAN. ) );
#159 = EDGE_CURVE ( 'NONE', #266, #106, #13, .T. ) ;
#160 = VERTEX_POINT ( 'NONE', #190 ) ;
#161 = DIRECTION ( 'NONE',  ( -0.0000000000000000000, -0.0000000000000000000, -1.000000000000000000 ) ) ;
#162 = DIRECTION ( 'NONE',  ( 1.000000000000000000, 0.0000000000000000000, 0.0000000000000000000 ) ) ;
#163 = CYLINDRICAL_SURFACE ( 'NONE', #60, 2.000000000000000400 ) ;
#164 = DIRECTION ( 'NONE',  ( 0.0000000000000000000, 0.0000000000000000000, 1.000000000000000000 ) ) ;
#165 = COLOUR_RGB ( '',1.000000000000000000, 1.000000000000000000, 1.000000000000000000 ) ;
#166 = EDGE_CURVE ( 'NONE', #204, #250, #128, .T. ) ;
#167 = LINE ( 'NONE', #130, #18 ) ;
#168 = VECTOR ( 'NONE', #105, 1000.000000000000000 ) ;
#169 = ORIENTED_EDGE ( 'NONE', *, *, #189, .T. ) ;
#170 = DIRECTION ( 'NONE',  ( -0.0000000000000000000, -0.0000000000000000000, -1.000000000000000000 ) ) ;
#171 = EDGE_CURVE ( 'NONE', #71, #106, #180, .T. ) ;
#172 = VECTOR ( 'NONE', #161, 1000.000000000000000 ) ;
#173 = FACE_OUTER_BOUND ( 'NONE', #61, .T. ) ;
#174 = SURFACE_SIDE_STYLE ('',( #259 ) ) ;
#175 = AXIS2_PLACEMENT_3D ( 'NONE', #104, #248, #239 ) ;
#176 = DIRECTION ( 'NONE',  ( 0.0000000000000000000, -1.000000000000000000, 0.0000000000000000000 ) ) ;
#177 = CARTESIAN_POINT ( 'NONE',  ( 4.500000000000000900, 7.000000000000000000, 0.0000000000000000000 ) ) ;
#178 = EDGE_LOOP ( 'NONE', ( #11, #76 ) ) ;
#179 = CARTESIAN_POINT ( 'NONE',  ( 0.0000000000000000000, 14.00000000000000000, 2.500000000000000000 ) ) ;
#180 = LINE ( 'NONE', #179, #44 ) ;
#181 = LINE ( 'NONE', #115, #45 ) ;
#182 = EDGE_CURVE ( 'NONE', #250, #204, #120, .T. ) ;
#183 = VECTOR ( 'NONE', #224, 1000.000000000000000 ) ;
#184 = CIRCLE ( 'NONE', #4, 2.000000000000000000 ) ;
#185 = DIRECTION ( 'NONE',  ( 0.0000000000000000000, -0.0000000000000000000, -1.000000000000000000 ) ) ;
#186 = EDGE_LOOP ( 'NONE', ( #70, #150, #194, #81 ) ) ;
#187 = ORIENTED_EDGE ( 'NONE', *, *, #240, .T. ) ;
#188 = CARTESIAN_POINT ( 'NONE',  ( 9.000000000000000000, 14.00000000000000000, 2.500000000000000000 ) ) ;
#189 = EDGE_CURVE ( 'NONE', #257, #160, #54, .T. ) ;
#190 = CARTESIAN_POINT ( 'NONE',  ( 0.0000000000000000000, 0.0000000000000000000, 0.0000000000000000000 ) ) ;
#191 = MECHANICAL_DESIGN_GEOMETRIC_PRESENTATION_REPRESENTATION (  '', ( #25 ), #50 ) ;
#192 =( NAMED_UNIT ( * ) SI_UNIT ( $, .STERADIAN. ) SOLID_ANGLE_UNIT ( ) );
#193 = EDGE_LOOP ( 'NONE', ( #270, #216, #21, #79 ) ) ;
#194 = ORIENTED_EDGE ( 'NONE', *, *, #166, .F. ) ;
#195 = CARTESIAN_POINT ( 'NONE',  ( 0.0000000000000000000, 0.0000000000000000000, 2.500000000000000000 ) ) ;
#196 = CARTESIAN_POINT ( 'NONE',  ( 0.0000000000000000000, 14.00000000000000000, 2.500000000000000000 ) ) ;
#197 = SURFACE_STYLE_USAGE ( .BOTH. , #174 ) ;
#198 = COLOUR_RGB ( '',1.000000000000000000, 1.000000000000000000, 1.000000000000000000 ) ;
#199 = PRESENTATION_STYLE_ASSIGNMENT (( #197 ) ) ;
#200 = FILL_AREA_STYLE_COLOUR ( '', #165 ) ;
#201 = ORIENTED_EDGE ( 'NONE', *, *, #211, .T. ) ;
#202 =( GEOMETRIC_REPRESENTATION_CONTEXT ( 3 ) GLOBAL_UNCERTAINTY_ASSIGNED_CONTEXT ( ( #73 ) ) GLOBAL_UNIT_ASSIGNED_CONTEXT ( ( #107, #158, #192 ) ) REPRESENTATION_CONTEXT ( 'NONE', 'WORKASPACE' ) );
#203 = ORIENTED_EDGE ( 'NONE', *, *, #217, .T. ) ;
#204 = VERTEX_POINT ( 'NONE', #149 ) ;
#205 = EDGE_CURVE ( 'NONE', #106, #160, #40, .T. ) ;
#206 = MECHANICAL_DESIGN_GEOMETRIC_PRESENTATION_REPRESENTATION (  '', ( #244 ), #202 ) ;
#207 = ORIENTED_EDGE ( 'NONE', *, *, #233, .T. ) ;
#208 = FACE_BOUND ( 'NONE', #253, .T. ) ;
#209 = DIRECTION ( 'NONE',  ( -1.000000000000000000, -0.0000000000000000000, -0.0000000000000000000 ) ) ;
#210 = CARTESIAN_POINT ( 'NONE',  ( 0.0000000000000000000, 14.00000000000000000, 0.0000000000000000000 ) ) ;
#211 = EDGE_CURVE ( 'NONE', #67, #204, #230, .T. ) ;
#212 = CARTESIAN_POINT ( 'NONE',  ( 0.0000000000000000000, 0.0000000000000000000, 0.0000000000000000000 ) ) ;
#213 = EDGE_CURVE ( 'NONE', #257, #92, #9, .T. ) ;
#214 = FACE_BOUND ( 'NONE', #178, .T. ) ;
#215 = EDGE_CURVE ( 'NONE', #92, #94, #167, .T. ) ;
#216 = ORIENTED_EDGE ( 'NONE', *, *, #233, .F. ) ;
#217 = EDGE_CURVE ( 'NONE', #92, #57, #129, .T. ) ;
#218 = CARTESIAN_POINT ( 'NONE',  ( 6.500000000000000900, 7.000000000000000000, 2.500000000000000000 ) ) ;
#219 = DIRECTION ( 'NONE',  ( -1.000000000000000000, 0.0000000000000000000, -0.0000000000000000000 ) ) ;
#220 = FACE_OUTER_BOUND ( 'NONE', #33, .T. ) ;
#221 = ORIENTED_EDGE ( 'NONE', *, *, #213, .F. ) ;
#222 = DIRECTION ( 'NONE',  ( -0.0000000000000000000, -0.0000000000000000000, -1.000000000000000000 ) ) ;
#223 = PLANE ( 'NONE',  #267 ) ;
#224 = DIRECTION ( 'NONE',  ( 1.000000000000000000, 1.224606353822377300E-016, 0.0000000000000000000 ) ) ;
#225 = EDGE_CURVE ( 'NONE', #94, #266, #247, .T. ) ;
#226 = CARTESIAN_POINT ( 'NONE',  ( 0.0000000000000000000, 14.00000000000000000, 0.0000000000000000000 ) ) ;
#227 = DIRECTION ( 'NONE',  ( -1.000000000000000000, 0.0000000000000000000, -0.0000000000000000000 ) ) ;
#228 = EDGE_CURVE ( 'NONE', #67, #103, #14, .T. ) ;
#229 = PLANE ( 'NONE',  #260 ) ;
#230 = LINE ( 'NONE', #142, #110 ) ;
#231 = SURFACE_STYLE_FILL_AREA ( #48 ) ;
#232 = LINE ( 'NONE', #122, #168 ) ;
#233 = EDGE_CURVE ( 'NONE', #57, #266, #181, .T. ) ;
#234 = CARTESIAN_POINT ( 'NONE',  ( 0.0000000000000000000, 14.00000000000000000, 2.500000000000000000 ) ) ;
#235 = ORIENTED_EDGE ( 'NONE', *, *, #62, .F. ) ;
#236 = DIRECTION ( 'NONE',  ( 0.0000000000000000000, 0.0000000000000000000, -1.000000000000000000 ) ) ;
#237 = VECTOR ( 'NONE', #209, 1000.000000000000000 ) ;
#238 = VECTOR ( 'NONE', #109, 1000.000000000000000 ) ;
#239 = DIRECTION ( 'NONE',  ( 0.0000000000000000000, 0.0000000000000000000, -1.000000000000000000 ) ) ;
#240 = EDGE_CURVE ( 'NONE', #103, #67, #184, .T. ) ;
#241 = DIRECTION ( 'NONE',  ( 0.0000000000000000000, 0.0000000000000000000, -1.000000000000000000 ) ) ;
#242 = ADVANCED_FACE ( 'NONE', ( #121 ), #93, .F. ) ;
#243 = PLANE ( 'NONE',  #175 ) ;
#244 = STYLED_ITEM ( 'NONE', ( #199 ), #20 ) ;
#245 = ORIENTED_EDGE ( 'NONE', *, *, #189, .F. ) ;
#246 = LINE ( 'NONE', #212, #183 ) ;
#247 = LINE ( 'NONE', #125, #238 ) ;
#248 = DIRECTION ( 'NONE',  ( 1.000000000000000000, 0.0000000000000000000, 0.0000000000000000000 ) ) ;
#249 = EDGE_LOOP ( 'NONE', ( #123, #6, #117, #114 ) ) ;
#250 = VERTEX_POINT ( 'NONE', #87 ) ;
#251 = PRESENTATION_LAYER_ASSIGNMENT (  '', '', ( #244 ) ) ;
#252 = DIRECTION ( 'NONE',  ( -0.0000000000000000000, -0.0000000000000000000, -1.000000000000000000 ) ) ;
#253 = EDGE_LOOP ( 'NONE', ( #90, #36 ) ) ;
#254 = AXIS2_PLACEMENT_3D ( 'NONE', #63, #77, #47 ) ;
#255 = AXIS2_PLACEMENT_3D ( 'NONE', #196, #176, #185 ) ;
#256 = ORIENTED_EDGE ( 'NONE', *, *, #182, .F. ) ;
#257 = VERTEX_POINT ( 'NONE', #72 ) ;
#258 = CARTESIAN_POINT ( 'NONE',  ( 4.500000000000000900, 7.000000000000000000, 2.500000000000000000 ) ) ;
#259 = SURFACE_STYLE_FILL_AREA ( #37 ) ;
#260 = AXIS2_PLACEMENT_3D ( 'NONE', #234, #241, #227 ) ;
#261 = DIRECTION ( 'NONE',  ( -1.000000000000000000, 0.0000000000000000000, 0.0000000000000000000 ) ) ;
#262 = CLOSED_SHELL ( 'NONE', ( #108, #126, #131, #119, #242, #265, #26, #116 ) ) ;
#263 = AXIS2_PLACEMENT_3D ( 'NONE', #177, #164, #162 ) ;
#264 = ORIENTED_EDGE ( 'NONE', *, *, #213, .T. ) ;
#265 = ADVANCED_FACE ( 'NONE', ( #111 ), #75, .F. ) ;
#266 = VERTEX_POINT ( 'NONE', #69 ) ;
#267 = AXIS2_PLACEMENT_3D ( 'NONE', #226, #236, #219 ) ;
#268 = VECTOR ( 'NONE', #222, 1000.000000000000000 ) ;
#269 = DIRECTION ( 'NONE',  ( -1.000000000000000000, 0.0000000000000000000, 0.0000000000000000000 ) ) ;
#270 = ORIENTED_EDGE ( 'NONE', *, *, #225, .T. ) ;
#271 = AXIS2_PLACEMENT_3D ( 'NONE', #99, #98, #96 ) ;
#272 = ADVANCED_BREP_SHAPE_REPRESENTATION ( '096p01409025m5', ( #20, #254 ), #15 ) ;
#273 = AXIS2_PLACEMENT_3D ( 'NONE', #276, #91, #269 ) ;
#274 = CYLINDRICAL_SURFACE ( 'NONE', #273, 2.000000000000000400 ) ;
#275 = ORIENTED_EDGE ( 'NONE', *, *, #137, .F. ) ;
#276 = CARTESIAN_POINT ( 'NONE',  ( 4.500000000000000900, 7.000000000000000000, 2.500000000000000000 ) ) ;
ENDSEC;
END-ISO-10303-21;
