ISO-10303-21;
HEADER;
FILE_DESCRIPTION (( 'STEP AP214' ),
    '1' );
FILE_NAME ('096p01409025m4.STEP',
    '2014-08-18T12:23:36',
    ( '' ),
    ( '' ),
    'SwSTEP 2.0',
    'SolidWorks 2014',
    '' );
FILE_SCHEMA (( 'AUTOMOTIVE_DESIGN' ));
ENDSEC;

DATA;
#1 = AXIS2_PLACEMENT_3D ( 'NONE', #240, #224, #223 ) ;
#2 = VECTOR ( 'NONE', #123, 1000.000000000000000 ) ;
#3 = CIRCLE ( 'NONE', #95, 1.600000000000001600 ) ;
#4 = EDGE_LOOP ( 'NONE', ( #121, #128, #186, #30 ) ) ;
#5 = EDGE_LOOP ( 'NONE', ( #183, #141, #266, #41 ) ) ;
#6 = CARTESIAN_POINT ( 'NONE',  ( 0.0000000000000000000, 0.0000000000000000000, 0.0000000000000000000 ) ) ;
#7 = UNCERTAINTY_MEASURE_WITH_UNIT (LENGTH_MEASURE( 1.000000000000000100E-005 ), #79, 'distance_accuracy_value', 'NONE');
#8 = STYLED_ITEM ( 'NONE', ( #24 ), #98 ) ;
#9 = VECTOR ( 'NONE', #143, 1000.000000000000000 ) ;
#10 = AXIS2_PLACEMENT_3D ( 'NONE', #256, #245, #244 ) ;
#11 = AXIS2_PLACEMENT_3D ( 'NONE', #274, #253, #29 ) ;
#12 = ORIENTED_EDGE ( 'NONE', *, *, #50, .F. ) ;
#13 = LINE ( 'NONE', #172, #135 ) ;
#14 = AXIS2_PLACEMENT_3D ( 'NONE', #133, #164, #189 ) ;
#15 = VERTEX_POINT ( 'NONE', #229 ) ;
#16 = LINE ( 'NONE', #178, #254 ) ;
#17 = AXIS2_PLACEMENT_3D ( 'NONE', #273, #147, #192 ) ;
#18 = ORIENTED_EDGE ( 'NONE', *, *, #131, .F. ) ;
#19 = ORIENTED_EDGE ( 'NONE', *, *, #47, .T. ) ;
#20 = EDGE_LOOP ( 'NONE', ( #100, #199 ) ) ;
#21 = ORIENTED_EDGE ( 'NONE', *, *, #132, .F. ) ;
#22 = EDGE_CURVE ( 'NONE', #167, #103, #154, .T. ) ;
#23 = SHAPE_DEFINITION_REPRESENTATION ( #197, #115 ) ;
#24 = PRESENTATION_STYLE_ASSIGNMENT (( #207 ) ) ;
#25 = AXIS2_PLACEMENT_3D ( 'NONE', #99, #71, #64 ) ;
#26 = ORIENTED_EDGE ( 'NONE', *, *, #140, .T. ) ;
#27 = EDGE_LOOP ( 'NONE', ( #116, #275, #159, #86 ) ) ;
#28 = VECTOR ( 'NONE', #241, 1000.000000000000000 ) ;
#29 = DIRECTION ( 'NONE',  ( -1.000000000000000000, 0.0000000000000000000, 0.0000000000000000000 ) ) ;
#30 = ORIENTED_EDGE ( 'NONE', *, *, #136, .T. ) ;
#31 = CARTESIAN_POINT ( 'NONE',  ( 4.500000000000000900, 7.000000000000000000, 2.500000000000000000 ) ) ;
#32 = ORIENTED_EDGE ( 'NONE', *, *, #50, .T. ) ;
#33 = EDGE_LOOP ( 'NONE', ( #149, #26, #77, #21 ) ) ;
#34 = EDGE_CURVE ( 'NONE', #72, #250, #92, .T. ) ;
#35 = EDGE_CURVE ( 'NONE', #234, #250, #265, .T. ) ;
#36 = VERTEX_POINT ( 'NONE', #236 ) ;
#37 = DIRECTION ( 'NONE',  ( 1.000000000000000000, 0.0000000000000000000, 0.0000000000000000000 ) ) ;
#38 = LINE ( 'NONE', #261, #179 ) ;
#39 = CARTESIAN_POINT ( 'NONE',  ( 0.0000000000000000000, 0.0000000000000000000, 2.500000000000000000 ) ) ;
#40 = ADVANCED_FACE ( 'NONE', ( #211, #201 ), #232, .T. ) ;
#41 = ORIENTED_EDGE ( 'NONE', *, *, #51, .T. ) ;
#42 = ADVANCED_FACE ( 'NONE', ( #228 ), #243, .F. ) ;
#43 = VERTEX_POINT ( 'NONE', #158 ) ;
#44 = ADVANCED_FACE ( 'NONE', ( #191 ), #114, .F. ) ;
#45 = FACE_OUTER_BOUND ( 'NONE', #272, .T. ) ;
#46 = ADVANCED_FACE ( 'NONE', ( #160 ), #238, .F. ) ;
#47 = EDGE_CURVE ( 'NONE', #210, #219, #3, .T. ) ;
#48 = ADVANCED_FACE ( 'NONE', ( #45 ), #73, .F. ) ;
#49 = AXIS2_PLACEMENT_3D ( 'NONE', #102, #69, #67 ) ;
#50 = EDGE_CURVE ( 'NONE', #250, #167, #120, .T. ) ;
#51 = EDGE_CURVE ( 'NONE', #15, #167, #185, .T. ) ;
#52 = PRESENTATION_STYLE_ASSIGNMENT (( #80 ) ) ;
#53 = LINE ( 'NONE', #139, #190 ) ;
#54 = EDGE_CURVE ( 'NONE', #36, #43, #38, .T. ) ;
#55 = APPLICATION_PROTOCOL_DEFINITION ( 'draft international standard', 'automotive_design', 1998, #56 ) ;
#56 = APPLICATION_CONTEXT ( 'automotive_design' ) ;
#57 = ADVANCED_FACE ( 'NONE', ( #127 ), #220, .F. ) ;
#58 = DIRECTION ( 'NONE',  ( -1.224606353822377300E-016, 1.000000000000000000, 0.0000000000000000000 ) ) ;
#59 = ADVANCED_FACE ( 'NONE', ( #227 ), #249, .F. ) ;
#60 = PRODUCT_CONTEXT ( 'NONE', #85, 'mechanical' ) ;
#61 = EDGE_CURVE ( 'NONE', #43, #72, #170, .T. ) ;
#62 = ADVANCED_FACE ( 'NONE', ( #204, #111 ), #226, .F. ) ;
#63 = ORIENTED_EDGE ( 'NONE', *, *, #132, .T. ) ;
#64 = DIRECTION ( 'NONE',  ( 0.0000000000000000000, 0.0000000000000000000, -1.000000000000000000 ) ) ;
#65 = CIRCLE ( 'NONE', #200, 1.600000000000001600 ) ;
#66 = EDGE_CURVE ( 'NONE', #15, #36, #215, .T. ) ;
#67 = DIRECTION ( 'NONE',  ( 1.000000000000000000, 0.0000000000000000000, 0.0000000000000000000 ) ) ;
#68 = ORIENTED_EDGE ( 'NONE', *, *, #101, .F. ) ;
#69 = DIRECTION ( 'NONE',  ( 0.0000000000000000000, 0.0000000000000000000, 1.000000000000000000 ) ) ;
#70 = EDGE_LOOP ( 'NONE', ( #107, #19, #63, #68 ) ) ;
#71 = DIRECTION ( 'NONE',  ( 1.000000000000000000, 0.0000000000000000000, 0.0000000000000000000 ) ) ;
#72 = VERTEX_POINT ( 'NONE', #212 ) ;
#73 = PLANE ( 'NONE',  #25 ) ;
#74 =( NAMED_UNIT ( * ) SI_UNIT ( $, .STERADIAN. ) SOLID_ANGLE_UNIT ( ) );
#75 = DIRECTION ( 'NONE',  ( 0.0000000000000000000, 0.0000000000000000000, 1.000000000000000000 ) ) ;
#76 =( NAMED_UNIT ( * ) PLANE_ANGLE_UNIT ( ) SI_UNIT ( $, .RADIAN. ) );
#77 = ORIENTED_EDGE ( 'NONE', *, *, #209, .F. ) ;
#78 = CLOSED_SHELL ( 'NONE', ( #42, #62, #40, #48, #46, #59, #44, #57 ) ) ;
#79 =( LENGTH_UNIT ( ) NAMED_UNIT ( * ) SI_UNIT ( .MILLI., .METRE. ) );
#80 = SURFACE_STYLE_USAGE ( .BOTH. , #82 ) ;
#81 = DIRECTION ( 'NONE',  ( -1.000000000000000000, -1.224606353822377300E-016, 0.0000000000000000000 ) ) ;
#82 = SURFACE_SIDE_STYLE ('',( #134 ) ) ;
#83 = FILL_AREA_STYLE ('',( #105 ) ) ;
#84 = AXIS2_PLACEMENT_3D ( 'NONE', #146, #58, #81 ) ;
#85 = APPLICATION_CONTEXT ( 'automotive_design' ) ;
#86 = ORIENTED_EDGE ( 'NONE', *, *, #61, .T. ) ;
#87 = ORIENTED_EDGE ( 'NONE', *, *, #22, .F. ) ;
#88 = CARTESIAN_POINT ( 'NONE',  ( 4.500000000000000900, 7.000000000000000000, 2.500000000000000000 ) ) ;
#89 =( GEOMETRIC_REPRESENTATION_CONTEXT ( 3 ) GLOBAL_UNCERTAINTY_ASSIGNED_CONTEXT ( ( #7 ) ) GLOBAL_UNIT_ASSIGNED_CONTEXT ( ( #79, #76, #74 ) ) REPRESENTATION_CONTEXT ( 'NONE', 'WORKASPACE' ) );
#90 = APPLICATION_PROTOCOL_DEFINITION ( 'draft international standard', 'automotive_design', 1998, #85 ) ;
#91 = UNCERTAINTY_MEASURE_WITH_UNIT (LENGTH_MEASURE( 1.000000000000000100E-005 ), #96, 'distance_accuracy_value', 'NONE');
#92 = LINE ( 'NONE', #252, #176 ) ;
#93 =( NAMED_UNIT ( * ) SI_UNIT ( $, .STERADIAN. ) SOLID_ANGLE_UNIT ( ) );
#94 =( NAMED_UNIT ( * ) PLANE_ANGLE_UNIT ( ) SI_UNIT ( $, .RADIAN. ) );
#95 = AXIS2_PLACEMENT_3D ( 'NONE', #88, #75, #37 ) ;
#96 =( LENGTH_UNIT ( ) NAMED_UNIT ( * ) SI_UNIT ( .MILLI., .METRE. ) );
#97 = SURFACE_STYLE_FILL_AREA ( #218 ) ;
#98 = MANIFOLD_SOLID_BREP ( 'Basis-Linear austragen', #78 ) ;
#99 = CARTESIAN_POINT ( 'NONE',  ( 0.0000000000000000000, 0.0000000000000000000, 2.500000000000000000 ) ) ;
#100 = ORIENTED_EDGE ( 'NONE', *, *, #209, .T. ) ;
#101 = EDGE_CURVE ( 'NONE', #194, #137, #144, .T. ) ;
#102 = CARTESIAN_POINT ( 'NONE',  ( 0.0000000000000000000, 0.0000000000000000000, 0.0000000000000000000 ) ) ;
#103 = VERTEX_POINT ( 'NONE', #180 ) ;
#104 = DIRECTION ( 'NONE',  ( 0.0000000000000000000, -1.000000000000000000, 0.0000000000000000000 ) ) ;
#105 = FILL_AREA_STYLE_COLOUR ( '', #195 ) ;
#106 = EDGE_CURVE ( 'NONE', #103, #72, #16, .T. ) ;
#107 = ORIENTED_EDGE ( 'NONE', *, *, #140, .F. ) ;
#108 = DIRECTION ( 'NONE',  ( 1.000000000000000000, 0.0000000000000000000, 0.0000000000000000000 ) ) ;
#109 = PRESENTATION_LAYER_ASSIGNMENT (  '', '', ( #8 ) ) ;
#110 = DIRECTION ( 'NONE',  ( 0.0000000000000000000, 0.0000000000000000000, 1.000000000000000000 ) ) ;
#111 = FACE_BOUND ( 'NONE', #225, .T. ) ;
#112 = CARTESIAN_POINT ( 'NONE',  ( 4.500000000000000900, 7.000000000000000000, 0.0000000000000000000 ) ) ;
#113 = CARTESIAN_POINT ( 'NONE',  ( 0.0000000000000000000, 14.00000000000000000, 0.0000000000000000000 ) ) ;
#114 = PLANE ( 'NONE',  #166 ) ;
#115 = ADVANCED_BREP_SHAPE_REPRESENTATION ( '096p01409025m4', ( #98, #49 ), #255 ) ;
#116 = ORIENTED_EDGE ( 'NONE', *, *, #34, .T. ) ;
#117 = CARTESIAN_POINT ( 'NONE',  ( 2.899999999999998600, 7.000000000000000000, 2.500000000000000000 ) ) ;
#118 = CARTESIAN_POINT ( 'NONE',  ( 0.0000000000000000000, 14.00000000000000000, 2.500000000000000000 ) ) ;
#119 = EDGE_CURVE ( 'NONE', #219, #210, #65, .T. ) ;
#120 = LINE ( 'NONE', #268, #233 ) ;
#121 = ORIENTED_EDGE ( 'NONE', *, *, #106, .T. ) ;
#122 = CARTESIAN_POINT ( 'NONE',  ( 6.100000000000003200, 7.000000000000000000, 0.0000000000000000000 ) ) ;
#123 = DIRECTION ( 'NONE',  ( -0.0000000000000000000, -0.0000000000000000000, -1.000000000000000000 ) ) ;
#124 = CARTESIAN_POINT ( 'NONE',  ( 0.0000000000000000000, 0.0000000000000000000, 0.0000000000000000000 ) ) ;
#125 = EDGE_CURVE ( 'NONE', #43, #234, #206, .T. ) ;
#126 = CARTESIAN_POINT ( 'NONE',  ( 6.100000000000002300, 7.000000000000000000, 2.500000000000000000 ) ) ;
#127 = FACE_OUTER_BOUND ( 'NONE', #70, .T. ) ;
#128 = ORIENTED_EDGE ( 'NONE', *, *, #61, .F. ) ;
#129 = DIRECTION ( 'NONE',  ( -0.0000000000000000000, -0.0000000000000000000, -1.000000000000000000 ) ) ;
#130 = DIRECTION ( 'NONE',  ( 0.0000000000000000000, -0.0000000000000000000, -1.000000000000000000 ) ) ;
#131 = EDGE_CURVE ( 'NONE', #234, #15, #13, .T. ) ;
#132 = EDGE_CURVE ( 'NONE', #219, #137, #196, .T. ) ;
#133 = CARTESIAN_POINT ( 'NONE',  ( 4.500000000000000900, 7.000000000000000000, 2.500000000000000000 ) ) ;
#134 = SURFACE_STYLE_FILL_AREA ( #83 ) ;
#135 = VECTOR ( 'NONE', #150, 1000.000000000000000 ) ;
#136 = EDGE_CURVE ( 'NONE', #36, #103, #53, .T. ) ;
#137 = VERTEX_POINT ( 'NONE', #151 ) ;
#138 = CARTESIAN_POINT ( 'NONE',  ( 0.0000000000000000000, 14.00000000000000000, 2.500000000000000000 ) ) ;
#139 = CARTESIAN_POINT ( 'NONE',  ( 8.999999999999998200, 1.102145718440139300E-015, 2.500000000000000000 ) ) ;
#140 = EDGE_CURVE ( 'NONE', #210, #194, #242, .T. ) ;
#141 = ORIENTED_EDGE ( 'NONE', *, *, #136, .F. ) ;
#142 = CIRCLE ( 'NONE', #263, 1.600000000000001600 ) ;
#143 = DIRECTION ( 'NONE',  ( -0.0000000000000000000, -0.0000000000000000000, -1.000000000000000000 ) ) ;
#144 = CIRCLE ( 'NONE', #213, 1.600000000000001600 ) ;
#145 = ORIENTED_EDGE ( 'NONE', *, *, #106, .F. ) ;
#146 = CARTESIAN_POINT ( 'NONE',  ( 0.0000000000000000000, 0.0000000000000000000, 2.500000000000000000 ) ) ;
#147 = DIRECTION ( 'NONE',  ( 0.0000000000000000000, 0.0000000000000000000, -1.000000000000000000 ) ) ;
#148 = CARTESIAN_POINT ( 'NONE',  ( 2.899999999999999000, 7.000000000000000000, 2.500000000000000000 ) ) ;
#149 = ORIENTED_EDGE ( 'NONE', *, *, #119, .T. ) ;
#150 = DIRECTION ( 'NONE',  ( -0.0000000000000000000, -1.000000000000000000, -0.0000000000000000000 ) ) ;
#151 = CARTESIAN_POINT ( 'NONE',  ( 2.899999999999998600, 7.000000000000000000, 0.0000000000000000000 ) ) ;
#152 = DIRECTION ( 'NONE',  ( 1.000000000000000000, 0.0000000000000000000, 0.0000000000000000000 ) ) ;
#153 = DIRECTION ( 'NONE',  ( -0.0000000000000000000, -0.0000000000000000000, -1.000000000000000000 ) ) ;
#154 = LINE ( 'NONE', #6, #28 ) ;
#155 = PRODUCT_DEFINITION ( 'UNKNOWN', '', #222, #270 ) ;
#156 = DIRECTION ( 'NONE',  ( 0.0000000000000000000, 0.0000000000000000000, 1.000000000000000000 ) ) ;
#157 = ORIENTED_EDGE ( 'NONE', *, *, #125, .T. ) ;
#158 = CARTESIAN_POINT ( 'NONE',  ( 9.000000000000000000, 14.00000000000000000, 2.500000000000000000 ) ) ;
#159 = ORIENTED_EDGE ( 'NONE', *, *, #125, .F. ) ;
#160 = FACE_OUTER_BOUND ( 'NONE', #5, .T. ) ;
#161 = DIRECTION ( 'NONE',  ( -1.000000000000000000, -0.0000000000000000000, -0.0000000000000000000 ) ) ;
#162 = CARTESIAN_POINT ( 'NONE',  ( 0.0000000000000000000, 14.00000000000000000, 2.500000000000000000 ) ) ;
#163 = CARTESIAN_POINT ( 'NONE',  ( 0.0000000000000000000, 14.00000000000000000, 2.500000000000000000 ) ) ;
#164 = DIRECTION ( 'NONE',  ( -0.0000000000000000000, -0.0000000000000000000, -1.000000000000000000 ) ) ;
#165 = COLOUR_RGB ( '',1.000000000000000000, 1.000000000000000000, 1.000000000000000000 ) ;
#166 = AXIS2_PLACEMENT_3D ( 'NONE', #163, #104, #130 ) ;
#167 = VERTEX_POINT ( 'NONE', #124 ) ;
#168 = PRESENTATION_LAYER_ASSIGNMENT (  '', '', ( #187 ) ) ;
#169 = CARTESIAN_POINT ( 'NONE',  ( 6.100000000000003200, 7.000000000000000000, 2.500000000000000000 ) ) ;
#170 = LINE ( 'NONE', #235, #267 ) ;
#171 = DIRECTION ( 'NONE',  ( 1.239088197126291100E-016, 1.000000000000000000, 0.0000000000000000000 ) ) ;
#172 = CARTESIAN_POINT ( 'NONE',  ( 0.0000000000000000000, 0.0000000000000000000, 2.500000000000000000 ) ) ;
#173 = DIRECTION ( 'NONE',  ( 1.000000000000000000, 0.0000000000000000000, 0.0000000000000000000 ) ) ;
#174 = DIRECTION ( 'NONE',  ( 0.0000000000000000000, 0.0000000000000000000, 1.000000000000000000 ) ) ;
#175 = ORIENTED_EDGE ( 'NONE', *, *, #54, .T. ) ;
#176 = VECTOR ( 'NONE', #246, 1000.000000000000000 ) ;
#177 = CARTESIAN_POINT ( 'NONE',  ( 4.500000000000000900, 7.000000000000000000, 0.0000000000000000000 ) ) ;
#178 = CARTESIAN_POINT ( 'NONE',  ( 8.999999999999998200, 1.102145718440139300E-015, 0.0000000000000000000 ) ) ;
#179 = VECTOR ( 'NONE', #259, 1000.000000000000000 ) ;
#180 = CARTESIAN_POINT ( 'NONE',  ( 8.999999999999998200, 1.102145718440139300E-015, 0.0000000000000000000 ) ) ;
#181 = MECHANICAL_DESIGN_GEOMETRIC_PRESENTATION_REPRESENTATION (  '', ( #187 ), #89 ) ;
#182 = VECTOR ( 'NONE', #153, 1000.000000000000000 ) ;
#183 = ORIENTED_EDGE ( 'NONE', *, *, #22, .T. ) ;
#184 =( GEOMETRIC_REPRESENTATION_CONTEXT ( 3 ) GLOBAL_UNCERTAINTY_ASSIGNED_CONTEXT ( ( #203 ) ) GLOBAL_UNIT_ASSIGNED_CONTEXT ( ( #205, #198, #193 ) ) REPRESENTATION_CONTEXT ( 'NONE', 'WORKASPACE' ) );
#185 = LINE ( 'NONE', #39, #271 ) ;
#186 = ORIENTED_EDGE ( 'NONE', *, *, #54, .F. ) ;
#187 = STYLED_ITEM ( 'NONE', ( #52 ), #115 ) ;
#188 = ORIENTED_EDGE ( 'NONE', *, *, #47, .F. ) ;
#189 = DIRECTION ( 'NONE',  ( -1.000000000000000000, 0.0000000000000000000, 0.0000000000000000000 ) ) ;
#190 = VECTOR ( 'NONE', #129, 1000.000000000000000 ) ;
#191 = FACE_OUTER_BOUND ( 'NONE', #27, .T. ) ;
#192 = DIRECTION ( 'NONE',  ( -1.000000000000000000, 0.0000000000000000000, -0.0000000000000000000 ) ) ;
#193 =( NAMED_UNIT ( * ) SI_UNIT ( $, .STERADIAN. ) SOLID_ANGLE_UNIT ( ) );
#194 = VERTEX_POINT ( 'NONE', #122 ) ;
#195 = COLOUR_RGB ( '',1.000000000000000000, 1.000000000000000000, 1.000000000000000000 ) ;
#196 = LINE ( 'NONE', #148, #9 ) ;
#197 = PRODUCT_DEFINITION_SHAPE ( 'NONE', 'NONE',  #155 ) ;
#198 =( NAMED_UNIT ( * ) PLANE_ANGLE_UNIT ( ) SI_UNIT ( $, .RADIAN. ) );
#199 = ORIENTED_EDGE ( 'NONE', *, *, #101, .T. ) ;
#200 = AXIS2_PLACEMENT_3D ( 'NONE', #31, #156, #152 ) ;
#201 = FACE_BOUND ( 'NONE', #20, .T. ) ;
#202 = PRODUCT ( '096p01409025m4', '096p01409025m4', '', ( #60 ) ) ;
#203 = UNCERTAINTY_MEASURE_WITH_UNIT (LENGTH_MEASURE( 1.000000000000000100E-005 ), #205, 'distance_accuracy_value', 'NONE');
#204 = FACE_OUTER_BOUND ( 'NONE', #269, .T. ) ;
#205 =( LENGTH_UNIT ( ) NAMED_UNIT ( * ) SI_UNIT ( .MILLI., .METRE. ) );
#206 = LINE ( 'NONE', #162, #247 ) ;
#207 = SURFACE_STYLE_USAGE ( .BOTH. , #208 ) ;
#208 = SURFACE_SIDE_STYLE ('',( #97 ) ) ;
#209 = EDGE_CURVE ( 'NONE', #137, #194, #142, .T. ) ;
#210 = VERTEX_POINT ( 'NONE', #169 ) ;
#211 = FACE_OUTER_BOUND ( 'NONE', #260, .T. ) ;
#212 = CARTESIAN_POINT ( 'NONE',  ( 9.000000000000000000, 14.00000000000000000, 0.0000000000000000000 ) ) ;
#213 = AXIS2_PLACEMENT_3D ( 'NONE', #177, #174, #173 ) ;
#214 = ORIENTED_EDGE ( 'NONE', *, *, #66, .T. ) ;
#215 = LINE ( 'NONE', #221, #217 ) ;
#216 = MECHANICAL_DESIGN_GEOMETRIC_PRESENTATION_REPRESENTATION (  '', ( #8 ), #184 ) ;
#217 = VECTOR ( 'NONE', #248, 1000.000000000000000 ) ;
#218 = FILL_AREA_STYLE ('',( #237 ) ) ;
#219 = VERTEX_POINT ( 'NONE', #117 ) ;
#220 = CYLINDRICAL_SURFACE ( 'NONE', #11, 1.600000000000001600 ) ;
#221 = CARTESIAN_POINT ( 'NONE',  ( 0.0000000000000000000, 0.0000000000000000000, 2.500000000000000000 ) ) ;
#222 = PRODUCT_DEFINITION_FORMATION_WITH_SPECIFIED_SOURCE ( 'ANY', '', #202, .NOT_KNOWN. ) ;
#223 = DIRECTION ( 'NONE',  ( -1.000000000000000000, 0.0000000000000000000, -0.0000000000000000000 ) ) ;
#224 = DIRECTION ( 'NONE',  ( 0.0000000000000000000, 0.0000000000000000000, -1.000000000000000000 ) ) ;
#225 = EDGE_LOOP ( 'NONE', ( #230, #188 ) ) ;
#226 = PLANE ( 'NONE',  #1 ) ;
#227 = FACE_OUTER_BOUND ( 'NONE', #4, .T. ) ;
#228 = FACE_OUTER_BOUND ( 'NONE', #33, .T. ) ;
#229 = CARTESIAN_POINT ( 'NONE',  ( 0.0000000000000000000, 0.0000000000000000000, 2.500000000000000000 ) ) ;
#230 = ORIENTED_EDGE ( 'NONE', *, *, #119, .F. ) ;
#231 = DIRECTION ( 'NONE',  ( -0.0000000000000000000, -0.0000000000000000000, -1.000000000000000000 ) ) ;
#232 = PLANE ( 'NONE',  #17 ) ;
#233 = VECTOR ( 'NONE', #264, 1000.000000000000000 ) ;
#234 = VERTEX_POINT ( 'NONE', #118 ) ;
#235 = CARTESIAN_POINT ( 'NONE',  ( 9.000000000000000000, 14.00000000000000000, 2.500000000000000000 ) ) ;
#236 = CARTESIAN_POINT ( 'NONE',  ( 8.999999999999998200, 1.102145718440139300E-015, 2.500000000000000000 ) ) ;
#237 = FILL_AREA_STYLE_COLOUR ( '', #165 ) ;
#238 = PLANE ( 'NONE',  #84 ) ;
#239 = PRODUCT_RELATED_PRODUCT_CATEGORY ( 'part', '', ( #202 ) ) ;
#240 = CARTESIAN_POINT ( 'NONE',  ( 0.0000000000000000000, 14.00000000000000000, 2.500000000000000000 ) ) ;
#241 = DIRECTION ( 'NONE',  ( 1.000000000000000000, 1.224606353822377300E-016, 0.0000000000000000000 ) ) ;
#242 = LINE ( 'NONE', #126, #2 ) ;
#243 = CYLINDRICAL_SURFACE ( 'NONE', #14, 1.600000000000001600 ) ;
#244 = DIRECTION ( 'NONE',  ( -1.239088197126291100E-016, -1.000000000000000000, 0.0000000000000000000 ) ) ;
#245 = DIRECTION ( 'NONE',  ( -1.000000000000000000, 1.239088197126291100E-016, 0.0000000000000000000 ) ) ;
#246 = DIRECTION ( 'NONE',  ( -1.000000000000000000, -0.0000000000000000000, -0.0000000000000000000 ) ) ;
#247 = VECTOR ( 'NONE', #161, 1000.000000000000000 ) ;
#248 = DIRECTION ( 'NONE',  ( 1.000000000000000000, 1.224606353822377300E-016, 0.0000000000000000000 ) ) ;
#249 = PLANE ( 'NONE',  #10 ) ;
#250 = VERTEX_POINT ( 'NONE', #113 ) ;
#251 = ORIENTED_EDGE ( 'NONE', *, *, #131, .T. ) ;
#252 = CARTESIAN_POINT ( 'NONE',  ( 0.0000000000000000000, 14.00000000000000000, 0.0000000000000000000 ) ) ;
#253 = DIRECTION ( 'NONE',  ( -0.0000000000000000000, -0.0000000000000000000, -1.000000000000000000 ) ) ;
#254 = VECTOR ( 'NONE', #171, 1000.000000000000000 ) ;
#255 =( GEOMETRIC_REPRESENTATION_CONTEXT ( 3 ) GLOBAL_UNCERTAINTY_ASSIGNED_CONTEXT ( ( #91 ) ) GLOBAL_UNIT_ASSIGNED_CONTEXT ( ( #96, #94, #93 ) ) REPRESENTATION_CONTEXT ( 'NONE', 'WORKASPACE' ) );
#256 = CARTESIAN_POINT ( 'NONE',  ( 8.999999999999998200, 1.102145718440139300E-015, 2.500000000000000000 ) ) ;
#257 = ORIENTED_EDGE ( 'NONE', *, *, #51, .F. ) ;
#258 = ORIENTED_EDGE ( 'NONE', *, *, #34, .F. ) ;
#259 = DIRECTION ( 'NONE',  ( 1.239088197126291100E-016, 1.000000000000000000, 0.0000000000000000000 ) ) ;
#260 = EDGE_LOOP ( 'NONE', ( #12, #258, #145, #87 ) ) ;
#261 = CARTESIAN_POINT ( 'NONE',  ( 8.999999999999998200, 1.102145718440139300E-015, 2.500000000000000000 ) ) ;
#262 = DIRECTION ( 'NONE',  ( -0.0000000000000000000, -0.0000000000000000000, -1.000000000000000000 ) ) ;
#263 = AXIS2_PLACEMENT_3D ( 'NONE', #112, #110, #108 ) ;
#264 = DIRECTION ( 'NONE',  ( -0.0000000000000000000, -1.000000000000000000, -0.0000000000000000000 ) ) ;
#265 = LINE ( 'NONE', #138, #182 ) ;
#266 = ORIENTED_EDGE ( 'NONE', *, *, #66, .F. ) ;
#267 = VECTOR ( 'NONE', #231, 1000.000000000000000 ) ;
#268 = CARTESIAN_POINT ( 'NONE',  ( 0.0000000000000000000, 0.0000000000000000000, 0.0000000000000000000 ) ) ;
#269 = EDGE_LOOP ( 'NONE', ( #251, #214, #175, #157 ) ) ;
#270 = PRODUCT_DEFINITION_CONTEXT ( 'detailed design', #56, 'design' ) ;
#271 = VECTOR ( 'NONE', #262, 1000.000000000000000 ) ;
#272 = EDGE_LOOP ( 'NONE', ( #32, #257, #18, #276 ) ) ;
#273 = CARTESIAN_POINT ( 'NONE',  ( 0.0000000000000000000, 14.00000000000000000, 0.0000000000000000000 ) ) ;
#274 = CARTESIAN_POINT ( 'NONE',  ( 4.500000000000000900, 7.000000000000000000, 2.500000000000000000 ) ) ;
#275 = ORIENTED_EDGE ( 'NONE', *, *, #35, .F. ) ;
#276 = ORIENTED_EDGE ( 'NONE', *, *, #35, .T. ) ;
ENDSEC;
END-ISO-10303-21;
