ISO-10303-21;
HEADER;
FILE_DESCRIPTION (( 'STEP AP214' ),
    '1' );
FILE_NAME ('096p0090903m5.STEP',
    '2014-08-18T12:21:07',
    ( '' ),
    ( '' ),
    'SwSTEP 2.0',
    'SolidWorks 2014',
    '' );
FILE_SCHEMA (( 'AUTOMOTIVE_DESIGN' ));
ENDSEC;

DATA;
#1 = EDGE_CURVE ( 'NONE', #61, #48, #258, .T. ) ;
#2 = LINE ( 'NONE', #100, #202 ) ;
#3 = FACE_BOUND ( 'NONE', #87, .T. ) ;
#4 = DIRECTION ( 'NONE',  ( 0.0000000000000000000, -1.000000000000000000, 0.0000000000000000000 ) ) ;
#5 = LINE ( 'NONE', #259, #275 ) ;
#6 = ORIENTED_EDGE ( 'NONE', *, *, #280, .F. ) ;
#7 = DIRECTION ( 'NONE',  ( 0.0000000000000000000, 0.0000000000000000000, 1.000000000000000000 ) ) ;
#8 = ORIENTED_EDGE ( 'NONE', *, *, #237, .T. ) ;
#9 = CARTESIAN_POINT ( 'NONE',  ( 0.0000000000000000000, 0.0000000000000000000, 0.0000000000000000000 ) ) ;
#10 = ORIENTED_EDGE ( 'NONE', *, *, #298, .F. ) ;
#11 = ADVANCED_FACE ( 'NONE', ( #107 ), #296, .F. ) ;
#12 = CARTESIAN_POINT ( 'NONE',  ( 0.0000000000000000000, 9.000000000000000000, 3.000000000000000000 ) ) ;
#13 = EDGE_CURVE ( 'NONE', #61, #276, #248, .T. ) ;
#14 = LINE ( 'NONE', #183, #224 ) ;
#15 = DIRECTION ( 'NONE',  ( -0.0000000000000000000, -0.0000000000000000000, -1.000000000000000000 ) ) ;
#16 = ORIENTED_EDGE ( 'NONE', *, *, #197, .T. ) ;
#17 = CARTESIAN_POINT ( 'NONE',  ( 4.500000000000000900, 4.500000000000000000, 0.0000000000000000000 ) ) ;
#18 = EDGE_CURVE ( 'NONE', #196, #299, #317, .T. ) ;
#19 = COLOUR_RGB ( '',1.000000000000000000, 1.000000000000000000, 1.000000000000000000 ) ;
#20 = EDGE_CURVE ( 'NONE', #48, #65, #178, .T. ) ;
#21 = EDGE_LOOP ( 'NONE', ( #10, #151, #145, #221 ) ) ;
#22 = CARTESIAN_POINT ( 'NONE',  ( 9.000000000000000000, 9.000000000000000000, 0.0000000000000000000 ) ) ;
#23 = VECTOR ( 'NONE', #181, 1000.000000000000000 ) ;
#24 = ORIENTED_EDGE ( 'NONE', *, *, #1, .F. ) ;
#25 = DIRECTION ( 'NONE',  ( -0.7071067811865515700, 0.0000000000000000000, 0.7071067811865435800 ) ) ;
#26 = DIRECTION ( 'NONE',  ( 1.000000000000000000, 0.0000000000000000000, 0.0000000000000000000 ) ) ;
#27 = PRODUCT_DEFINITION_SHAPE ( 'NONE', 'NONE',  #250 ) ;
#28 = CYLINDRICAL_SURFACE ( 'NONE', #326, 2.000000000000000400 ) ;
#29 = VECTOR ( 'NONE', #177, 1000.000000000000000 ) ;
#30 = ORIENTED_EDGE ( 'NONE', *, *, #18, .T. ) ;
#31 = ORIENTED_EDGE ( 'NONE', *, *, #137, .F. ) ;
#32 = EDGE_LOOP ( 'NONE', ( #261, #44, #199, #306 ) ) ;
#33 = PLANE ( 'NONE',  #146 ) ;
#34 = APPLICATION_PROTOCOL_DEFINITION ( 'draft international standard', 'automotive_design', 1998, #238 ) ;
#35 = ORIENTED_EDGE ( 'NONE', *, *, #247, .T. ) ;
#36 = CARTESIAN_POINT ( 'NONE',  ( 6.500000000000000900, 4.500000000000000000, 3.000000000000000000 ) ) ;
#37 = DIRECTION ( 'NONE',  ( -0.0000000000000000000, -0.0000000000000000000, -1.000000000000000000 ) ) ;
#38 =( NAMED_UNIT ( * ) SI_UNIT ( $, .STERADIAN. ) SOLID_ANGLE_UNIT ( ) );
#39 = VECTOR ( 'NONE', #53, 1000.000000000000000 ) ;
#40 = VECTOR ( 'NONE', #266, 1000.000000000000000 ) ;
#41 = ORIENTED_EDGE ( 'NONE', *, *, #289, .T. ) ;
#42 = DIRECTION ( 'NONE',  ( -0.0000000000000000000, -0.0000000000000000000, -1.000000000000000000 ) ) ;
#43 = MECHANICAL_DESIGN_GEOMETRIC_PRESENTATION_REPRESENTATION (  '', ( #66 ), #46 ) ;
#44 = ORIENTED_EDGE ( 'NONE', *, *, #289, .F. ) ;
#45 = DIRECTION ( 'NONE',  ( 1.000000000000000000, 0.0000000000000000000, 0.0000000000000000000 ) ) ;
#46 =( GEOMETRIC_REPRESENTATION_CONTEXT ( 3 ) GLOBAL_UNCERTAINTY_ASSIGNED_CONTEXT ( ( #252 ) ) GLOBAL_UNIT_ASSIGNED_CONTEXT ( ( #294, #90, #38 ) ) REPRESENTATION_CONTEXT ( 'NONE', 'WORKASPACE' ) );
#47 = CARTESIAN_POINT ( 'NONE',  ( 0.0000000000000000000, 0.0000000000000000000, 3.000000000000000000 ) ) ;
#48 = VERTEX_POINT ( 'NONE', #93 ) ;
#49 = LINE ( 'NONE', #147, #321 ) ;
#50 = ORIENTED_EDGE ( 'NONE', *, *, #243, .F. ) ;
#51 = VERTEX_POINT ( 'NONE', #174 ) ;
#52 = DIRECTION ( 'NONE',  ( 0.0000000000000000000, 1.000000000000000000, 0.0000000000000000000 ) ) ;
#53 = DIRECTION ( 'NONE',  ( -0.0000000000000000000, -0.0000000000000000000, -1.000000000000000000 ) ) ;
#54 = FACE_OUTER_BOUND ( 'NONE', #305, .T. ) ;
#55 = DIRECTION ( 'NONE',  ( -1.000000000000000000, 0.0000000000000000000, 0.0000000000000000000 ) ) ;
#56 = EDGE_LOOP ( 'NONE', ( #6, #16, #8, #236 ) ) ;
#57 = CARTESIAN_POINT ( 'NONE',  ( 4.500000000000000900, 4.500000000000000000, 3.000000000000000000 ) ) ;
#58 = ADVANCED_FACE ( 'NONE', ( #309 ), #189, .F. ) ;
#59 = ADVANCED_FACE ( 'NONE', ( #303 ), #28, .F. ) ;
#60 =( LENGTH_UNIT ( ) NAMED_UNIT ( * ) SI_UNIT ( .MILLI., .METRE. ) );
#61 = VERTEX_POINT ( 'NONE', #312 ) ;
#62 = ADVANCED_FACE ( 'NONE', ( #302 ), #101, .F. ) ;
#63 = VECTOR ( 'NONE', #324, 1000.000000000000000 ) ;
#64 = DIRECTION ( 'NONE',  ( 1.000000000000000000, 1.224606353822377300E-016, 0.0000000000000000000 ) ) ;
#65 = VERTEX_POINT ( 'NONE', #297 ) ;
#66 = STYLED_ITEM ( 'NONE', ( #230 ), #141 ) ;
#67 = DIRECTION ( 'NONE',  ( 0.0000000000000000000, 0.0000000000000000000, -1.000000000000000000 ) ) ;
#68 = ORIENTED_EDGE ( 'NONE', *, *, #117, .T. ) ;
#69 = VECTOR ( 'NONE', #15, 1000.000000000000000 ) ;
#70 = CYLINDRICAL_SURFACE ( 'NONE', #216, 2.000000000000000400 ) ;
#71 = CIRCLE ( 'NONE', #223, 2.000000000000000000 ) ;
#72 = UNCERTAINTY_MEASURE_WITH_UNIT (LENGTH_MEASURE( 1.000000000000000100E-005 ), #184, 'distance_accuracy_value', 'NONE');
#73 = PRODUCT_CONTEXT ( 'NONE', #238, 'mechanical' ) ;
#74 = DIRECTION ( 'NONE',  ( 1.000000000000000000, 0.0000000000000000000, 0.0000000000000000000 ) ) ;
#75 = DIRECTION ( 'NONE',  ( 0.0000000000000000000, -1.000000000000000000, 0.0000000000000000000 ) ) ;
#76 = ORIENTED_EDGE ( 'NONE', *, *, #234, .T. ) ;
#77 = DIRECTION ( 'NONE',  ( -0.0000000000000000000, -0.0000000000000000000, -1.000000000000000000 ) ) ;
#78 = VECTOR ( 'NONE', #64, 1000.000000000000000 ) ;
#79 = FILL_AREA_STYLE ('',( #269 ) ) ;
#80 = EDGE_LOOP ( 'NONE', ( #329, #35 ) ) ;
#81 = DIRECTION ( 'NONE',  ( 1.000000000000000000, 0.0000000000000000000, 0.0000000000000000000 ) ) ;
#82 = CARTESIAN_POINT ( 'NONE',  ( 0.0000000000000000000, 9.000000000000000000, 0.0000000000000000000 ) ) ;
#83 = ORIENTED_EDGE ( 'NONE', *, *, #239, .T. ) ;
#84 = FILL_AREA_STYLE ('',( #129 ) ) ;
#85 = LINE ( 'NONE', #82, #23 ) ;
#86 = CARTESIAN_POINT ( 'NONE',  ( 0.0000000000000000000, 0.0000000000000000000, 3.000000000000000000 ) ) ;
#87 = EDGE_LOOP ( 'NONE', ( #323, #217 ) ) ;
#88 = DIRECTION ( 'NONE',  ( 0.0000000000000000000, 0.0000000000000000000, 1.000000000000000000 ) ) ;
#89 = AXIS2_PLACEMENT_3D ( 'NONE', #9, #88, #74 ) ;
#90 =( NAMED_UNIT ( * ) PLANE_ANGLE_UNIT ( ) SI_UNIT ( $, .RADIAN. ) );
#91 = DIRECTION ( 'NONE',  ( 0.0000000000000000000, 0.0000000000000000000, 1.000000000000000000 ) ) ;
#92 = CARTESIAN_POINT ( 'NONE',  ( 6.500000000000000900, 4.500000000000000000, 3.000000000000000000 ) ) ;
#93 = CARTESIAN_POINT ( 'NONE',  ( 9.000000000000000000, 1.479664914899593400E-015, 1.999999999999993100 ) ) ;
#94 = DIRECTION ( 'NONE',  ( 1.000000000000000000, 0.0000000000000000000, 0.0000000000000000000 ) ) ;
#95 = SURFACE_STYLE_FILL_AREA ( #84 ) ;
#96 = CARTESIAN_POINT ( 'NONE',  ( 0.0000000000000000000, 0.0000000000000000000, 0.0000000000000000000 ) ) ;
#97 = ORIENTED_EDGE ( 'NONE', *, *, #237, .F. ) ;
#98 = VERTEX_POINT ( 'NONE', #136 ) ;
#99 = CARTESIAN_POINT ( 'NONE',  ( 4.500000000000000900, 4.500000000000000000, 3.000000000000000000 ) ) ;
#100 = CARTESIAN_POINT ( 'NONE',  ( 9.000000000000000000, 1.102145718440139500E-015, 0.0000000000000000000 ) ) ;
#101 = PLANE ( 'NONE',  #222 ) ;
#102 = ORIENTED_EDGE ( 'NONE', *, *, #298, .T. ) ;
#103 = DIRECTION ( 'NONE',  ( -1.000000000000000000, 0.0000000000000000000, 0.0000000000000000000 ) ) ;
#104 = CARTESIAN_POINT ( 'NONE',  ( 0.0000000000000000000, 0.0000000000000000000, 3.000000000000000000 ) ) ;
#105 = PRESENTATION_LAYER_ASSIGNMENT (  '', '', ( #66 ) ) ;
#106 = DIRECTION ( 'NONE',  ( -0.0000000000000000000, -0.0000000000000000000, -1.000000000000000000 ) ) ;
#107 = FACE_OUTER_BOUND ( 'NONE', #140, .T. ) ;
#108 = ORIENTED_EDGE ( 'NONE', *, *, #137, .T. ) ;
#109 = CARTESIAN_POINT ( 'NONE',  ( 7.999999999999979600, 9.000000000000000000, 3.000000000000000400 ) ) ;
#110 = CARTESIAN_POINT ( 'NONE',  ( 0.0000000000000000000, 0.0000000000000000000, 0.0000000000000000000 ) ) ;
#111 = MANIFOLD_SOLID_BREP ( 'Fase1', #198 ) ;
#112 = VECTOR ( 'NONE', #42, 1000.000000000000000 ) ;
#113 = ORIENTED_EDGE ( 'NONE', *, *, #20, .T. ) ;
#114 = VERTEX_POINT ( 'NONE', #316 ) ;
#115 = CARTESIAN_POINT ( 'NONE',  ( -1.084202172485504400E-016, 9.000000000000000000, 1.999999999999993100 ) ) ;
#116 = DIRECTION ( 'NONE',  ( 0.0000000000000000000, 0.0000000000000000000, 1.000000000000000000 ) ) ;
#117 = EDGE_CURVE ( 'NONE', #310, #114, #274, .T. ) ;
#118 = PLANE ( 'NONE',  #209 ) ;
#119 = VERTEX_POINT ( 'NONE', #203 ) ;
#120 = ORIENTED_EDGE ( 'NONE', *, *, #280, .T. ) ;
#121 = EDGE_LOOP ( 'NONE', ( #50, #41, #322, #102 ) ) ;
#122 = EDGE_CURVE ( 'NONE', #264, #61, #284, .T. ) ;
#123 = DIRECTION ( 'NONE',  ( 1.000000000000000000, 1.224606353822377300E-016, 0.0000000000000000000 ) ) ;
#124 = VERTEX_POINT ( 'NONE', #228 ) ;
#125 = VECTOR ( 'NONE', #77, 1000.000000000000000 ) ;
#126 = ORIENTED_EDGE ( 'NONE', *, *, #130, .T. ) ;
#127 = DIRECTION ( 'NONE',  ( -0.0000000000000000000, -0.0000000000000000000, -1.000000000000000000 ) ) ;
#128 = DIRECTION ( 'NONE',  ( -1.000000000000000000, 0.0000000000000000000, -0.0000000000000000000 ) ) ;
#129 = FILL_AREA_STYLE_COLOUR ( '', #169 ) ;
#130 = EDGE_CURVE ( 'NONE', #341, #51, #5, .T. ) ;
#131 = ORIENTED_EDGE ( 'NONE', *, *, #13, .F. ) ;
#132 = DIRECTION ( 'NONE',  ( -0.7071067811865513500, 0.0000000000000000000, -0.7071067811865438000 ) ) ;
#133 = CARTESIAN_POINT ( 'NONE',  ( 9.000000000000000000, 1.102145718440139500E-015, 3.000000000000000000 ) ) ;
#134 = FACE_OUTER_BOUND ( 'NONE', #271, .T. ) ;
#135 = CARTESIAN_POINT ( 'NONE',  ( 4.500000000000000900, 4.500000000000000000, 3.000000000000000000 ) ) ;
#136 = CARTESIAN_POINT ( 'NONE',  ( 9.000000000000000000, 1.102145718440139500E-015, 0.0000000000000000000 ) ) ;
#137 = EDGE_CURVE ( 'NONE', #65, #264, #149, .T. ) ;
#138 = VECTOR ( 'NONE', #175, 1000.000000000000000 ) ;
#139 = CARTESIAN_POINT ( 'NONE',  ( 1.000000000000017500, 9.000000000000000000, 3.000000000000000000 ) ) ;
#140 = EDGE_LOOP ( 'NONE', ( #131, #231, #83, #166 ) ) ;
#141 = ADVANCED_BREP_SHAPE_REPRESENTATION ( '096p0090903m5', ( #111, #89 ), #156 ) ;
#142 = APPLICATION_PROTOCOL_DEFINITION ( 'draft international standard', 'automotive_design', 1998, #282 ) ;
#143 = DIRECTION ( 'NONE',  ( 0.7071067811865438000, 0.0000000000000000000, -0.7071067811865513500 ) ) ;
#144 = DIRECTION ( 'NONE',  ( 0.0000000000000000000, -1.000000000000000000, 0.0000000000000000000 ) ) ;
#145 = ORIENTED_EDGE ( 'NONE', *, *, #246, .F. ) ;
#146 = AXIS2_PLACEMENT_3D ( 'NONE', #47, #81, #67 ) ;
#147 = CARTESIAN_POINT ( 'NONE',  ( 0.0000000000000000000, 0.0000000000000000000, 1.999999999999993100 ) ) ;
#148 = LINE ( 'NONE', #104, #273 ) ;
#149 = LINE ( 'NONE', #292, #138 ) ;
#150 = EDGE_CURVE ( 'NONE', #215, #119, #71, .T. ) ;
#151 = ORIENTED_EDGE ( 'NONE', *, *, #213, .F. ) ;
#152 = SURFACE_SIDE_STYLE ('',( #95 ) ) ;
#153 = ADVANCED_FACE ( 'NONE', ( #220 ), #288, .F. ) ;
#154 = EDGE_CURVE ( 'NONE', #264, #114, #211, .T. ) ;
#155 = ORIENTED_EDGE ( 'NONE', *, *, #154, .F. ) ;
#156 =( GEOMETRIC_REPRESENTATION_CONTEXT ( 3 ) GLOBAL_UNCERTAINTY_ASSIGNED_CONTEXT ( ( #330 ) ) GLOBAL_UNIT_ASSIGNED_CONTEXT ( ( #60, #279, #267 ) ) REPRESENTATION_CONTEXT ( 'NONE', 'WORKASPACE' ) );
#157 = ADVANCED_FACE ( 'NONE', ( #333, #270 ), #320, .T. ) ;
#158 = ADVANCED_FACE ( 'NONE', ( #134 ), #256, .F. ) ;
#159 = DIRECTION ( 'NONE',  ( -1.000000000000000000, 0.0000000000000000000, -0.0000000000000000000 ) ) ;
#160 = LINE ( 'NONE', #110, #78 ) ;
#161 = ADVANCED_FACE ( 'NONE', ( #265 ), #70, .F. ) ;
#162 = MECHANICAL_DESIGN_GEOMETRIC_PRESENTATION_REPRESENTATION (  '', ( #165 ), #167 ) ;
#163 = ADVANCED_FACE ( 'NONE', ( #54, #3 ), #118, .F. ) ;
#164 = DIRECTION ( 'NONE',  ( 0.0000000000000000000, 0.0000000000000000000, -1.000000000000000000 ) ) ;
#165 = STYLED_ITEM ( 'NONE', ( #242 ), #111 ) ;
#166 = ORIENTED_EDGE ( 'NONE', *, *, #246, .T. ) ;
#167 =( GEOMETRIC_REPRESENTATION_CONTEXT ( 3 ) GLOBAL_UNCERTAINTY_ASSIGNED_CONTEXT ( ( #72 ) ) GLOBAL_UNIT_ASSIGNED_CONTEXT ( ( #184, #210, #208 ) ) REPRESENTATION_CONTEXT ( 'NONE', 'WORKASPACE' ) );
#168 = SURFACE_STYLE_USAGE ( .BOTH. , #152 ) ;
#169 = COLOUR_RGB ( '',1.000000000000000000, 1.000000000000000000, 1.000000000000000000 ) ;
#170 = CARTESIAN_POINT ( 'NONE',  ( 0.0000000000000000000, 0.0000000000000000000, 3.000000000000000000 ) ) ;
#171 = ORIENTED_EDGE ( 'NONE', *, *, #213, .T. ) ;
#172 = ORIENTED_EDGE ( 'NONE', *, *, #20, .F. ) ;
#173 = CARTESIAN_POINT ( 'NONE',  ( 7.999999999999981300, 1.734723475976807100E-015, 2.999999999999999600 ) ) ;
#174 = CARTESIAN_POINT ( 'NONE',  ( 0.0000000000000000000, 0.0000000000000000000, 1.999999999999993100 ) ) ;
#175 = DIRECTION ( 'NONE',  ( 0.0000000000000000000, 1.000000000000000000, 0.0000000000000000000 ) ) ;
#176 = ORIENTED_EDGE ( 'NONE', *, *, #201, .F. ) ;
#177 = DIRECTION ( 'NONE',  ( -0.7071067811865515700, -8.659274570719404700E-017, 0.7071067811865435800 ) ) ;
#178 = LINE ( 'NONE', #173, #29 ) ;
#179 = PRESENTATION_LAYER_ASSIGNMENT (  '', '', ( #165 ) ) ;
#180 = ORIENTED_EDGE ( 'NONE', *, *, #154, .T. ) ;
#181 = DIRECTION ( 'NONE',  ( -1.000000000000000000, -0.0000000000000000000, -0.0000000000000000000 ) ) ;
#182 = DIRECTION ( 'NONE',  ( 0.0000000000000000000, -0.0000000000000000000, -1.000000000000000000 ) ) ;
#183 = CARTESIAN_POINT ( 'NONE',  ( 2.500000000000000000, 4.500000000000000000, 3.000000000000000000 ) ) ;
#184 =( LENGTH_UNIT ( ) NAMED_UNIT ( * ) SI_UNIT ( .MILLI., .METRE. ) );
#185 = LINE ( 'NONE', #96, #40 ) ;
#186 = ORIENTED_EDGE ( 'NONE', *, *, #243, .T. ) ;
#187 = DIRECTION ( 'NONE',  ( 0.0000000000000000000, 0.0000000000000000000, 1.000000000000000000 ) ) ;
#188 = VECTOR ( 'NONE', #75, 1000.000000000000000 ) ;
#189 = PLANE ( 'NONE',  #318 ) ;
#190 = AXIS2_PLACEMENT_3D ( 'NONE', #338, #304, #307 ) ;
#191 = CARTESIAN_POINT ( 'NONE',  ( 4.500000000000000900, 4.500000000000000000, 3.000000000000000000 ) ) ;
#192 = CARTESIAN_POINT ( 'NONE',  ( 7.999999999999981300, 9.000000000000000000, 3.000000000000000000 ) ) ;
#193 = LINE ( 'NONE', #36, #112 ) ;
#194 = DIRECTION ( 'NONE',  ( 0.0000000000000000000, 1.000000000000000000, 0.0000000000000000000 ) ) ;
#195 = AXIS2_PLACEMENT_3D ( 'NONE', #17, #7, #26 ) ;
#196 = VERTEX_POINT ( 'NONE', #245 ) ;
#197 = EDGE_CURVE ( 'NONE', #299, #196, #241, .T. ) ;
#198 = CLOSED_SHELL ( 'NONE', ( #59, #163, #157, #295, #153, #11, #158, #161, #62, #58 ) ) ;
#199 = ORIENTED_EDGE ( 'NONE', *, *, #130, .F. ) ;
#200 = DIRECTION ( 'NONE',  ( -1.224606353822377300E-016, 1.000000000000000000, 0.0000000000000000000 ) ) ;
#201 = EDGE_CURVE ( 'NONE', #341, #65, #301, .T. ) ;
#202 = VECTOR ( 'NONE', #194, 1000.000000000000000 ) ;
#203 = CARTESIAN_POINT ( 'NONE',  ( 6.500000000000000900, 4.500000000000000000, 0.0000000000000000000 ) ) ;
#204 = LINE ( 'NONE', #12, #125 ) ;
#205 = DIRECTION ( 'NONE',  ( -1.000000000000000000, -1.224606353822377300E-016, 0.0000000000000000000 ) ) ;
#206 = CARTESIAN_POINT ( 'NONE',  ( 0.0000000000000000000, 9.000000000000000000, 3.000000000000000000 ) ) ;
#207 = DIRECTION ( 'NONE',  ( 1.000000000000000000, 0.0000000000000000000, 0.0000000000000000000 ) ) ;
#208 =( NAMED_UNIT ( * ) SI_UNIT ( $, .STERADIAN. ) SOLID_ANGLE_UNIT ( ) );
#209 = AXIS2_PLACEMENT_3D ( 'NONE', #254, #164, #128 ) ;
#210 =( NAMED_UNIT ( * ) PLANE_ANGLE_UNIT ( ) SI_UNIT ( $, .RADIAN. ) );
#211 = LINE ( 'NONE', #328, #63 ) ;
#212 = CARTESIAN_POINT ( 'NONE',  ( 1.000000000000017500, 9.000000000000000000, 3.000000000000000000 ) ) ;
#213 = EDGE_CURVE ( 'NONE', #276, #314, #85, .T. ) ;
#214 = PRODUCT_DEFINITION_CONTEXT ( 'detailed design', #282, 'design' ) ;
#215 = VERTEX_POINT ( 'NONE', #281 ) ;
#216 = AXIS2_PLACEMENT_3D ( 'NONE', #99, #285, #103 ) ;
#217 = ORIENTED_EDGE ( 'NONE', *, *, #197, .F. ) ;
#218 = CIRCLE ( 'NONE', #195, 2.000000000000000000 ) ;
#219 = EDGE_CURVE ( 'NONE', #124, #98, #160, .T. ) ;
#220 = FACE_OUTER_BOUND ( 'NONE', #286, .T. ) ;
#221 = ORIENTED_EDGE ( 'NONE', *, *, #219, .F. ) ;
#222 = AXIS2_PLACEMENT_3D ( 'NONE', #293, #143, #132 ) ;
#223 = AXIS2_PLACEMENT_3D ( 'NONE', #336, #187, #207 ) ;
#224 = VECTOR ( 'NONE', #127, 1000.000000000000000 ) ;
#225 = VECTOR ( 'NONE', #277, 1000.000000000000000 ) ;
#226 = CARTESIAN_POINT ( 'NONE',  ( 9.000000000000000000, 1.102145718440139500E-015, 1.999999999999993100 ) ) ;
#227 = ORIENTED_EDGE ( 'NONE', *, *, #122, .F. ) ;
#228 = CARTESIAN_POINT ( 'NONE',  ( 0.0000000000000000000, 0.0000000000000000000, 0.0000000000000000000 ) ) ;
#229 = DIRECTION ( 'NONE',  ( 0.7071067811865513500, -0.0000000000000000000, 0.7071067811865438000 ) ) ;
#230 = PRESENTATION_STYLE_ASSIGNMENT (( #255 ) ) ;
#231 = ORIENTED_EDGE ( 'NONE', *, *, #1, .T. ) ;
#232 = VECTOR ( 'NONE', #144, 1000.000000000000000 ) ;
#233 = PRODUCT_DEFINITION_FORMATION_WITH_SPECIFIED_SOURCE ( 'ANY', '', #235, .NOT_KNOWN. ) ;
#234 = EDGE_CURVE ( 'NONE', #114, #341, #291, .T. ) ;
#235 = PRODUCT ( '096p0090903m5', '096p0090903m5', '', ( #73 ) ) ;
#236 = ORIENTED_EDGE ( 'NONE', *, *, #247, .F. ) ;
#237 = EDGE_CURVE ( 'NONE', #196, #215, #14, .T. ) ;
#238 = APPLICATION_CONTEXT ( 'automotive_design' ) ;
#239 = EDGE_CURVE ( 'NONE', #48, #98, #283, .T. ) ;
#240 = VECTOR ( 'NONE', #123, 1000.000000000000000 ) ;
#241 = CIRCLE ( 'NONE', #311, 2.000000000000000000 ) ;
#242 = PRESENTATION_STYLE_ASSIGNMENT (( #168 ) ) ;
#243 = EDGE_CURVE ( 'NONE', #51, #124, #148, .T. ) ;
#244 = CARTESIAN_POINT ( 'NONE',  ( 7.999999999999981300, 9.000000000000000000, 3.000000000000000000 ) ) ;
#245 = CARTESIAN_POINT ( 'NONE',  ( 2.500000000000000000, 4.500000000000000000, 3.000000000000000000 ) ) ;
#246 = EDGE_CURVE ( 'NONE', #98, #276, #2, .T. ) ;
#247 = EDGE_CURVE ( 'NONE', #119, #215, #218, .T. ) ;
#248 = LINE ( 'NONE', #337, #39 ) ;
#249 = SURFACE_SIDE_STYLE ('',( #290 ) ) ;
#250 = PRODUCT_DEFINITION ( 'UNKNOWN', '', #233, #214 ) ;
#251 = FACE_OUTER_BOUND ( 'NONE', #121, .T. ) ;
#252 = UNCERTAINTY_MEASURE_WITH_UNIT (LENGTH_MEASURE( 1.000000000000000100E-005 ), #294, 'distance_accuracy_value', 'NONE');
#253 = ORIENTED_EDGE ( 'NONE', *, *, #219, .T. ) ;
#254 = CARTESIAN_POINT ( 'NONE',  ( 0.0000000000000000000, 9.000000000000000000, 3.000000000000000000 ) ) ;
#255 = SURFACE_STYLE_USAGE ( .BOTH. , #249 ) ;
#256 = PLANE ( 'NONE',  #332 ) ;
#257 = EDGE_CURVE ( 'NONE', #310, #314, #204, .T. ) ;
#258 = LINE ( 'NONE', #226, #188 ) ;
#259 = CARTESIAN_POINT ( 'NONE',  ( 1.000000000000018200, 0.0000000000000000000, 3.000000000000000400 ) ) ;
#260 = ORIENTED_EDGE ( 'NONE', *, *, #239, .F. ) ;
#261 = ORIENTED_EDGE ( 'NONE', *, *, #117, .F. ) ;
#262 = ORIENTED_EDGE ( 'NONE', *, *, #201, .T. ) ;
#263 = CARTESIAN_POINT ( 'NONE',  ( 0.0000000000000000000, 9.000000000000000000, 0.0000000000000000000 ) ) ;
#264 = VERTEX_POINT ( 'NONE', #109 ) ;
#265 = FACE_OUTER_BOUND ( 'NONE', #56, .T. ) ;
#266 = DIRECTION ( 'NONE',  ( -0.0000000000000000000, -1.000000000000000000, -0.0000000000000000000 ) ) ;
#267 =( NAMED_UNIT ( * ) SI_UNIT ( $, .STERADIAN. ) SOLID_ANGLE_UNIT ( ) );
#268 = ORIENTED_EDGE ( 'NONE', *, *, #150, .F. ) ;
#269 = FILL_AREA_STYLE_COLOUR ( '', #19 ) ;
#270 = FACE_BOUND ( 'NONE', #80, .T. ) ;
#271 = EDGE_LOOP ( 'NONE', ( #342, #68, #155, #272, #325, #171 ) ) ;
#272 = ORIENTED_EDGE ( 'NONE', *, *, #122, .T. ) ;
#273 = VECTOR ( 'NONE', #106, 1000.000000000000000 ) ;
#274 = LINE ( 'NONE', #212, #339 ) ;
#275 = VECTOR ( 'NONE', #340, 1000.000000000000000 ) ;
#276 = VERTEX_POINT ( 'NONE', #22 ) ;
#277 = DIRECTION ( 'NONE',  ( 0.7071067811865515700, -0.0000000000000000000, -0.7071067811865435800 ) ) ;
#278 = CARTESIAN_POINT ( 'NONE',  ( 1.000000000000017500, 6.123031769111991100E-017, 3.000000000000000000 ) ) ;
#279 =( NAMED_UNIT ( * ) PLANE_ANGLE_UNIT ( ) SI_UNIT ( $, .RADIAN. ) );
#280 = EDGE_CURVE ( 'NONE', #299, #119, #193, .T. ) ;
#281 = CARTESIAN_POINT ( 'NONE',  ( 2.500000000000000000, 4.500000000000000000, 0.0000000000000000000 ) ) ;
#282 = APPLICATION_CONTEXT ( 'automotive_design' ) ;
#283 = LINE ( 'NONE', #133, #69 ) ;
#284 = LINE ( 'NONE', #244, #225 ) ;
#285 = DIRECTION ( 'NONE',  ( -0.0000000000000000000, -0.0000000000000000000, -1.000000000000000000 ) ) ;
#286 = EDGE_LOOP ( 'NONE', ( #176, #126, #186, #253, #260, #113 ) ) ;
#287 = AXIS2_PLACEMENT_3D ( 'NONE', #170, #200, #205 ) ;
#288 = PLANE ( 'NONE',  #287 ) ;
#289 = EDGE_CURVE ( 'NONE', #51, #310, #49, .T. ) ;
#290 = SURFACE_STYLE_FILL_AREA ( #79 ) ;
#291 = LINE ( 'NONE', #139, #232 ) ;
#292 = CARTESIAN_POINT ( 'NONE',  ( 7.999999999999981300, 9.000000000000000000, 3.000000000000000000 ) ) ;
#293 = CARTESIAN_POINT ( 'NONE',  ( 1.000000000000017500, 9.000000000000000000, 3.000000000000000000 ) ) ;
#294 =( LENGTH_UNIT ( ) NAMED_UNIT ( * ) SI_UNIT ( .MILLI., .METRE. ) );
#295 = ADVANCED_FACE ( 'NONE', ( #251 ), #33, .F. ) ;
#296 = PLANE ( 'NONE',  #190 ) ;
#297 = CARTESIAN_POINT ( 'NONE',  ( 7.999999999999979600, 1.357204279517353100E-015, 3.000000000000000000 ) ) ;
#298 = EDGE_CURVE ( 'NONE', #314, #124, #185, .T. ) ;
#299 = VERTEX_POINT ( 'NONE', #92 ) ;
#300 = DIRECTION ( 'NONE',  ( -0.7071067811865435800, 0.0000000000000000000, -0.7071067811865515700 ) ) ;
#301 = LINE ( 'NONE', #86, #240 ) ;
#302 = FACE_OUTER_BOUND ( 'NONE', #32, .T. ) ;
#303 = FACE_OUTER_BOUND ( 'NONE', #327, .T. ) ;
#304 = DIRECTION ( 'NONE',  ( -1.000000000000000000, 0.0000000000000000000, 0.0000000000000000000 ) ) ;
#305 = EDGE_LOOP ( 'NONE', ( #180, #76, #262, #108 ) ) ;
#306 = ORIENTED_EDGE ( 'NONE', *, *, #234, .F. ) ;
#307 = DIRECTION ( 'NONE',  ( 0.0000000000000000000, 0.0000000000000000000, 1.000000000000000000 ) ) ;
#308 = AXIS2_PLACEMENT_3D ( 'NONE', #331, #319, #159 ) ;
#309 = FACE_OUTER_BOUND ( 'NONE', #334, .T. ) ;
#310 = VERTEX_POINT ( 'NONE', #115 ) ;
#311 = AXIS2_PLACEMENT_3D ( 'NONE', #135, #116, #45 ) ;
#312 = CARTESIAN_POINT ( 'NONE',  ( 9.000000000000000000, 9.000000000000000000, 1.999999999999993100 ) ) ;
#313 = SHAPE_DEFINITION_REPRESENTATION ( #27, #141 ) ;
#314 = VERTEX_POINT ( 'NONE', #263 ) ;
#315 = AXIS2_PLACEMENT_3D ( 'NONE', #57, #91, #94 ) ;
#316 = CARTESIAN_POINT ( 'NONE',  ( 1.000000000000017300, 9.000000000000000000, 3.000000000000000000 ) ) ;
#317 = CIRCLE ( 'NONE', #315, 2.000000000000000000 ) ;
#318 = AXIS2_PLACEMENT_3D ( 'NONE', #192, #300, #25 ) ;
#319 = DIRECTION ( 'NONE',  ( 0.0000000000000000000, 0.0000000000000000000, -1.000000000000000000 ) ) ;
#320 = PLANE ( 'NONE',  #308 ) ;
#321 = VECTOR ( 'NONE', #52, 1000.000000000000000 ) ;
#322 = ORIENTED_EDGE ( 'NONE', *, *, #257, .T. ) ;
#323 = ORIENTED_EDGE ( 'NONE', *, *, #18, .F. ) ;
#324 = DIRECTION ( 'NONE',  ( -1.000000000000000000, -0.0000000000000000000, -0.0000000000000000000 ) ) ;
#325 = ORIENTED_EDGE ( 'NONE', *, *, #13, .T. ) ;
#326 = AXIS2_PLACEMENT_3D ( 'NONE', #191, #37, #55 ) ;
#327 = EDGE_LOOP ( 'NONE', ( #30, #120, #268, #97 ) ) ;
#328 = CARTESIAN_POINT ( 'NONE',  ( 0.0000000000000000000, 9.000000000000000000, 3.000000000000000000 ) ) ;
#329 = ORIENTED_EDGE ( 'NONE', *, *, #150, .T. ) ;
#330 = UNCERTAINTY_MEASURE_WITH_UNIT (LENGTH_MEASURE( 1.000000000000000100E-005 ), #60, 'distance_accuracy_value', 'NONE');
#331 = CARTESIAN_POINT ( 'NONE',  ( 0.0000000000000000000, 9.000000000000000000, 0.0000000000000000000 ) ) ;
#332 = AXIS2_PLACEMENT_3D ( 'NONE', #206, #4, #182 ) ;
#333 = FACE_OUTER_BOUND ( 'NONE', #21, .T. ) ;
#334 = EDGE_LOOP ( 'NONE', ( #172, #24, #227, #31 ) ) ;
#335 = PRODUCT_RELATED_PRODUCT_CATEGORY ( 'part', '', ( #235 ) ) ;
#336 = CARTESIAN_POINT ( 'NONE',  ( 4.500000000000000900, 4.500000000000000000, 0.0000000000000000000 ) ) ;
#337 = CARTESIAN_POINT ( 'NONE',  ( 9.000000000000000000, 9.000000000000000000, 3.000000000000000000 ) ) ;
#338 = CARTESIAN_POINT ( 'NONE',  ( 9.000000000000000000, 1.102145718440139500E-015, 3.000000000000000000 ) ) ;
#339 = VECTOR ( 'NONE', #229, 1000.000000000000000 ) ;
#340 = DIRECTION ( 'NONE',  ( -0.7071067811865513500, -8.659274570719402300E-017, -0.7071067811865438000 ) ) ;
#341 = VERTEX_POINT ( 'NONE', #278 ) ;
#342 = ORIENTED_EDGE ( 'NONE', *, *, #257, .F. ) ;
ENDSEC;
END-ISO-10303-21;
