ISO-10303-21;
HEADER;
FILE_DESCRIPTION (( 'STEP AP214' ),
    '1' );
FILE_NAME ('096p0090903m4.STEP',
    '2014-08-18T12:19:43',
    ( '' ),
    ( '' ),
    'SwSTEP 2.0',
    'SolidWorks 2014',
    '' );
FILE_SCHEMA (( 'AUTOMOTIVE_DESIGN' ));
ENDSEC;

DATA;
#1 = AXIS2_PLACEMENT_3D ( 'NONE', #155, #129, #128 ) ;
#2 = CARTESIAN_POINT ( 'NONE',  ( 7.999999999999981300, 9.000000000000000000, 3.000000000000000000 ) ) ;
#3 = SURFACE_STYLE_FILL_AREA ( #70 ) ;
#4 = LINE ( 'NONE', #26, #210 ) ;
#5 = EDGE_CURVE ( 'NONE', #278, #341, #66, .T. ) ;
#6 = ORIENTED_EDGE ( 'NONE', *, *, #140, .T. ) ;
#7 = EDGE_LOOP ( 'NONE', ( #168, #237, #308, #109, #178, #243 ) ) ;
#8 = DIRECTION ( 'NONE',  ( 0.7071067811865513500, -0.0000000000000000000, 0.7071067811865438000 ) ) ;
#9 = AXIS2_PLACEMENT_3D ( 'NONE', #335, #334, #332 ) ;
#10 = EDGE_LOOP ( 'NONE', ( #255, #321, #124, #191 ) ) ;
#11 = DIRECTION ( 'NONE',  ( 1.000000000000000000, 0.0000000000000000000, 0.0000000000000000000 ) ) ;
#12 = LINE ( 'NONE', #68, #268 ) ;
#13 = DIRECTION ( 'NONE',  ( 0.0000000000000000000, 0.0000000000000000000, 1.000000000000000000 ) ) ;
#14 = CARTESIAN_POINT ( 'NONE',  ( 9.000000000000000000, 9.000000000000000000, 0.0000000000000000000 ) ) ;
#15 = UNCERTAINTY_MEASURE_WITH_UNIT (LENGTH_MEASURE( 1.000000000000000100E-005 ), #100, 'distance_accuracy_value', 'NONE');
#16 = CARTESIAN_POINT ( 'NONE',  ( 7.999999999999979600, 9.000000000000000000, 3.000000000000000400 ) ) ;
#17 = CARTESIAN_POINT ( 'NONE',  ( 4.500000000000000900, 4.500000000000000000, 3.000000000000000000 ) ) ;
#18 = EDGE_CURVE ( 'NONE', #341, #278, #269, .T. ) ;
#19 = VECTOR ( 'NONE', #171, 1000.000000000000000 ) ;
#20 = DIRECTION ( 'NONE',  ( 1.000000000000000000, 1.224606353822377300E-016, 0.0000000000000000000 ) ) ;
#21 = VERTEX_POINT ( 'NONE', #85 ) ;
#22 = CARTESIAN_POINT ( 'NONE',  ( 0.0000000000000000000, 0.0000000000000000000, 3.000000000000000000 ) ) ;
#23 = VERTEX_POINT ( 'NONE', #32 ) ;
#24 =( GEOMETRIC_REPRESENTATION_CONTEXT ( 3 ) GLOBAL_UNCERTAINTY_ASSIGNED_CONTEXT ( ( #15 ) ) GLOBAL_UNIT_ASSIGNED_CONTEXT ( ( #100, #94, #92 ) ) REPRESENTATION_CONTEXT ( 'NONE', 'WORKASPACE' ) );
#25 = DIRECTION ( 'NONE',  ( 1.000000000000000000, 0.0000000000000000000, 0.0000000000000000000 ) ) ;
#26 = CARTESIAN_POINT ( 'NONE',  ( 0.0000000000000000000, 0.0000000000000000000, 0.0000000000000000000 ) ) ;
#27 = LINE ( 'NONE', #150, #157 ) ;
#28 = ORIENTED_EDGE ( 'NONE', *, *, #215, .T. ) ;
#29 = AXIS2_PLACEMENT_3D ( 'NONE', #293, #285, #284 ) ;
#30 = CARTESIAN_POINT ( 'NONE',  ( 1.000000000000017500, 9.000000000000000000, 3.000000000000000000 ) ) ;
#31 = FACE_BOUND ( 'NONE', #67, .T. ) ;
#32 = CARTESIAN_POINT ( 'NONE',  ( -1.084202172485504400E-016, 9.000000000000000000, 1.999999999999993100 ) ) ;
#33 = ORIENTED_EDGE ( 'NONE', *, *, #192, .T. ) ;
#34 = ORIENTED_EDGE ( 'NONE', *, *, #222, .F. ) ;
#35 = CARTESIAN_POINT ( 'NONE',  ( 4.500000000000000900, 4.500000000000000000, 3.000000000000000000 ) ) ;
#36 = AXIS2_PLACEMENT_3D ( 'NONE', #127, #141, #132 ) ;
#37 = FILL_AREA_STYLE_COLOUR ( '', #264 ) ;
#38 = EDGE_CURVE ( 'NONE', #23, #242, #200, .T. ) ;
#39 = APPLICATION_PROTOCOL_DEFINITION ( 'draft international standard', 'automotive_design', 1998, #40 ) ;
#40 = APPLICATION_CONTEXT ( 'automotive_design' ) ;
#41 = ORIENTED_EDGE ( 'NONE', *, *, #18, .T. ) ;
#42 = EDGE_CURVE ( 'NONE', #93, #305, #338, .T. ) ;
#43 = PRODUCT_CONTEXT ( 'NONE', #73, 'mechanical' ) ;
#44 = CARTESIAN_POINT ( 'NONE',  ( 0.0000000000000000000, 0.0000000000000000000, 3.000000000000000000 ) ) ;
#45 = DIRECTION ( 'NONE',  ( 0.0000000000000000000, 0.0000000000000000000, 1.000000000000000000 ) ) ;
#46 = DIRECTION ( 'NONE',  ( 1.000000000000000000, 0.0000000000000000000, 0.0000000000000000000 ) ) ;
#47 = DIRECTION ( 'NONE',  ( 0.0000000000000000000, 0.0000000000000000000, 1.000000000000000000 ) ) ;
#48 = CARTESIAN_POINT ( 'NONE',  ( 0.0000000000000000000, 0.0000000000000000000, 0.0000000000000000000 ) ) ;
#49 = LINE ( 'NONE', #258, #252 ) ;
#50 = DIRECTION ( 'NONE',  ( 0.0000000000000000000, -1.000000000000000000, 0.0000000000000000000 ) ) ;
#51 = LINE ( 'NONE', #2, #320 ) ;
#52 = ORIENTED_EDGE ( 'NONE', *, *, #161, .T. ) ;
#53 = VERTEX_POINT ( 'NONE', #14 ) ;
#54 = STYLED_ITEM ( 'NONE', ( #250 ), #187 ) ;
#55 = VECTOR ( 'NONE', #329, 1000.000000000000000 ) ;
#56 = ORIENTED_EDGE ( 'NONE', *, *, #222, .T. ) ;
#57 = PRODUCT ( '096p0090903m4', '096p0090903m4', '', ( #43 ) ) ;
#58 = LINE ( 'NONE', #306, #190 ) ;
#59 = ORIENTED_EDGE ( 'NONE', *, *, #98, .F. ) ;
#60 = EDGE_LOOP ( 'NONE', ( #166, #113, #97, #142 ) ) ;
#61 =( NAMED_UNIT ( * ) SI_UNIT ( $, .STERADIAN. ) SOLID_ANGLE_UNIT ( ) );
#62 =( NAMED_UNIT ( * ) PLANE_ANGLE_UNIT ( ) SI_UNIT ( $, .RADIAN. ) );
#63 =( LENGTH_UNIT ( ) NAMED_UNIT ( * ) SI_UNIT ( .MILLI., .METRE. ) );
#64 = VECTOR ( 'NONE', #326, 1000.000000000000000 ) ;
#65 = SURFACE_STYLE_USAGE ( .BOTH. , #69 ) ;
#66 = CIRCLE ( 'NONE', #244, 1.599999999999999900 ) ;
#67 = EDGE_LOOP ( 'NONE', ( #86, #152 ) ) ;
#68 = CARTESIAN_POINT ( 'NONE',  ( 9.000000000000000000, 1.102145718440139500E-015, 0.0000000000000000000 ) ) ;
#69 = SURFACE_SIDE_STYLE ('',( #3 ) ) ;
#70 = FILL_AREA_STYLE ('',( #71 ) ) ;
#71 = FILL_AREA_STYLE_COLOUR ( '', #318 ) ;
#72 = LINE ( 'NONE', #106, #74 ) ;
#73 = APPLICATION_CONTEXT ( 'automotive_design' ) ;
#74 = VECTOR ( 'NONE', #102, 1000.000000000000000 ) ;
#75 = PRESENTATION_LAYER_ASSIGNMENT (  '', '', ( #54 ) ) ;
#76 = VECTOR ( 'NONE', #105, 1000.000000000000000 ) ;
#77 = EDGE_CURVE ( 'NONE', #93, #81, #58, .T. ) ;
#78 = APPLICATION_PROTOCOL_DEFINITION ( 'draft international standard', 'automotive_design', 1998, #73 ) ;
#79 = ORIENTED_EDGE ( 'NONE', *, *, #161, .F. ) ;
#80 = EDGE_LOOP ( 'NONE', ( #56, #163 ) ) ;
#81 = VERTEX_POINT ( 'NONE', #295 ) ;
#82 = EDGE_CURVE ( 'NONE', #305, #164, #51, .T. ) ;
#83 = VECTOR ( 'NONE', #107, 1000.000000000000000 ) ;
#84 = AXIS2_PLACEMENT_3D ( 'NONE', #246, #233, #232 ) ;
#85 = CARTESIAN_POINT ( 'NONE',  ( 9.000000000000000000, 9.000000000000000000, 1.999999999999993100 ) ) ;
#86 = ORIENTED_EDGE ( 'NONE', *, *, #5, .F. ) ;
#87 = LINE ( 'NONE', #44, #76 ) ;
#88 = ORIENTED_EDGE ( 'NONE', *, *, #114, .T. ) ;
#89 = MANIFOLD_SOLID_BREP ( 'Fase1', #110 ) ;
#90 = LINE ( 'NONE', #169, #219 ) ;
#91 = ORIENTED_EDGE ( 'NONE', *, *, #241, .F. ) ;
#92 =( NAMED_UNIT ( * ) SI_UNIT ( $, .STERADIAN. ) SOLID_ANGLE_UNIT ( ) );
#93 = VERTEX_POINT ( 'NONE', #286 ) ;
#94 =( NAMED_UNIT ( * ) PLANE_ANGLE_UNIT ( ) SI_UNIT ( $, .RADIAN. ) );
#95 = MECHANICAL_DESIGN_GEOMETRIC_PRESENTATION_REPRESENTATION (  '', ( #54 ), #112 ) ;
#96 = CARTESIAN_POINT ( 'NONE',  ( 6.100000000000000500, 4.500000000000000000, 3.000000000000000000 ) ) ;
#97 = ORIENTED_EDGE ( 'NONE', *, *, #42, .T. ) ;
#98 = EDGE_CURVE ( 'NONE', #21, #339, #289, .T. ) ;
#99 = CARTESIAN_POINT ( 'NONE',  ( 2.900000000000000800, 4.500000000000000000, 0.0000000000000000000 ) ) ;
#100 =( LENGTH_UNIT ( ) NAMED_UNIT ( * ) SI_UNIT ( .MILLI., .METRE. ) );
#101 = FACE_OUTER_BOUND ( 'NONE', #206, .T. ) ;
#102 = DIRECTION ( 'NONE',  ( -0.0000000000000000000, -0.0000000000000000000, -1.000000000000000000 ) ) ;
#103 = LINE ( 'NONE', #183, #167 ) ;
#104 = ORIENTED_EDGE ( 'NONE', *, *, #208, .F. ) ;
#105 = DIRECTION ( 'NONE',  ( -0.0000000000000000000, -0.0000000000000000000, -1.000000000000000000 ) ) ;
#106 = CARTESIAN_POINT ( 'NONE',  ( 2.900000000000000800, 4.500000000000000000, 3.000000000000000000 ) ) ;
#107 = DIRECTION ( 'NONE',  ( -1.000000000000000000, -0.0000000000000000000, -0.0000000000000000000 ) ) ;
#108 = FACE_OUTER_BOUND ( 'NONE', #154, .T. ) ;
#109 = ORIENTED_EDGE ( 'NONE', *, *, #292, .T. ) ;
#110 = CLOSED_SHELL ( 'NONE', ( #297, #309, #299, #301, #311, #304, #298, #312, #296, #307 ) ) ;
#111 = PRODUCT_DEFINITION_CONTEXT ( 'detailed design', #40, 'design' ) ;
#112 =( GEOMETRIC_REPRESENTATION_CONTEXT ( 3 ) GLOBAL_UNCERTAINTY_ASSIGNED_CONTEXT ( ( #245 ) ) GLOBAL_UNIT_ASSIGNED_CONTEXT ( ( #63, #62, #61 ) ) REPRESENTATION_CONTEXT ( 'NONE', 'WORKASPACE' ) );
#113 = ORIENTED_EDGE ( 'NONE', *, *, #149, .T. ) ;
#114 = EDGE_CURVE ( 'NONE', #341, #272, #103, .T. ) ;
#115 = FACE_OUTER_BOUND ( 'NONE', #239, .T. ) ;
#116 = ORIENTED_EDGE ( 'NONE', *, *, #314, .T. ) ;
#117 = AXIS2_PLACEMENT_3D ( 'NONE', #230, #256, #235 ) ;
#118 = CARTESIAN_POINT ( 'NONE',  ( 9.000000000000000000, 1.479664914899593400E-015, 1.999999999999993100 ) ) ;
#119 = ORIENTED_EDGE ( 'NONE', *, *, #130, .F. ) ;
#120 = CARTESIAN_POINT ( 'NONE',  ( 9.000000000000000000, 1.102145718440139500E-015, 0.0000000000000000000 ) ) ;
#121 = FACE_OUTER_BOUND ( 'NONE', #10, .T. ) ;
#122 = ORIENTED_EDGE ( 'NONE', *, *, #192, .F. ) ;
#123 = PRESENTATION_STYLE_ASSIGNMENT (( #234 ) ) ;
#124 = ORIENTED_EDGE ( 'NONE', *, *, #77, .F. ) ;
#125 = EDGE_CURVE ( 'NONE', #23, #288, #162, .T. ) ;
#126 = CARTESIAN_POINT ( 'NONE',  ( 0.0000000000000000000, 9.000000000000000000, 3.000000000000000000 ) ) ;
#127 = CARTESIAN_POINT ( 'NONE',  ( 4.500000000000000900, 4.500000000000000000, 3.000000000000000000 ) ) ;
#128 = DIRECTION ( 'NONE',  ( -1.000000000000000000, -1.224606353822377300E-016, 0.0000000000000000000 ) ) ;
#129 = DIRECTION ( 'NONE',  ( -1.224606353822377300E-016, 1.000000000000000000, 0.0000000000000000000 ) ) ;
#130 = EDGE_CURVE ( 'NONE', #339, #330, #90, .T. ) ;
#131 = LINE ( 'NONE', #261, #325 ) ;
#132 = DIRECTION ( 'NONE',  ( -1.000000000000000000, 0.0000000000000000000, 0.0000000000000000000 ) ) ;
#133 = EDGE_CURVE ( 'NONE', #164, #242, #287, .T. ) ;
#134 = VECTOR ( 'NONE', #8, 1000.000000000000000 ) ;
#135 = ORIENTED_EDGE ( 'NONE', *, *, #292, .F. ) ;
#136 = AXIS2_PLACEMENT_3D ( 'NONE', #226, #220, #212 ) ;
#137 = EDGE_LOOP ( 'NONE', ( #265, #59, #135, #201 ) ) ;
#138 = FACE_OUTER_BOUND ( 'NONE', #214, .T. ) ;
#139 = ORIENTED_EDGE ( 'NONE', *, *, #42, .F. ) ;
#140 = EDGE_CURVE ( 'NONE', #81, #23, #27, .T. ) ;
#141 = DIRECTION ( 'NONE',  ( -0.0000000000000000000, -0.0000000000000000000, -1.000000000000000000 ) ) ;
#142 = ORIENTED_EDGE ( 'NONE', *, *, #82, .T. ) ;
#143 = DIRECTION ( 'NONE',  ( -0.0000000000000000000, -0.0000000000000000000, -1.000000000000000000 ) ) ;
#144 = CYLINDRICAL_SURFACE ( 'NONE', #36, 1.599999999999999900 ) ;
#145 = DIRECTION ( 'NONE',  ( -1.000000000000000000, 0.0000000000000000000, -0.0000000000000000000 ) ) ;
#146 = CIRCLE ( 'NONE', #9, 1.599999999999999900 ) ;
#147 = PLANE ( 'NONE',  #313 ) ;
#148 = VERTEX_POINT ( 'NONE', #99 ) ;
#149 = EDGE_CURVE ( 'NONE', #242, #93, #283, .T. ) ;
#150 = CARTESIAN_POINT ( 'NONE',  ( 0.0000000000000000000, 0.0000000000000000000, 1.999999999999993100 ) ) ;
#151 = CARTESIAN_POINT ( 'NONE',  ( 0.0000000000000000000, 9.000000000000000000, 3.000000000000000000 ) ) ;
#152 = ORIENTED_EDGE ( 'NONE', *, *, #18, .F. ) ;
#153 = CARTESIAN_POINT ( 'NONE',  ( 0.0000000000000000000, 9.000000000000000000, 3.000000000000000000 ) ) ;
#154 = EDGE_LOOP ( 'NONE', ( #91, #229, #291, #28 ) ) ;
#155 = CARTESIAN_POINT ( 'NONE',  ( 0.0000000000000000000, 0.0000000000000000000, 3.000000000000000000 ) ) ;
#156 = DIRECTION ( 'NONE',  ( -0.7071067811865515700, 0.0000000000000000000, 0.7071067811865435800 ) ) ;
#157 = VECTOR ( 'NONE', #172, 1000.000000000000000 ) ;
#158 = DIRECTION ( 'NONE',  ( -0.7071067811865435800, 0.0000000000000000000, -0.7071067811865515700 ) ) ;
#159 = DIRECTION ( 'NONE',  ( 0.0000000000000000000, 0.0000000000000000000, -1.000000000000000000 ) ) ;
#160 = CARTESIAN_POINT ( 'NONE',  ( 1.000000000000017500, 9.000000000000000000, 3.000000000000000000 ) ) ;
#161 = EDGE_CURVE ( 'NONE', #81, #231, #87, .T. ) ;
#162 = LINE ( 'NONE', #151, #19 ) ;
#163 = ORIENTED_EDGE ( 'NONE', *, *, #177, .T. ) ;
#164 = VERTEX_POINT ( 'NONE', #16 ) ;
#165 = AXIS2_PLACEMENT_3D ( 'NONE', #48, #47, #46 ) ;
#166 = ORIENTED_EDGE ( 'NONE', *, *, #133, .T. ) ;
#167 = VECTOR ( 'NONE', #184, 1000.000000000000000 ) ;
#168 = ORIENTED_EDGE ( 'NONE', *, *, #125, .F. ) ;
#169 = CARTESIAN_POINT ( 'NONE',  ( 9.000000000000000000, 1.102145718440139500E-015, 3.000000000000000000 ) ) ;
#170 = AXIS2_PLACEMENT_3D ( 'NONE', #211, #223, #203 ) ;
#171 = DIRECTION ( 'NONE',  ( -0.0000000000000000000, -0.0000000000000000000, -1.000000000000000000 ) ) ;
#172 = DIRECTION ( 'NONE',  ( 0.0000000000000000000, 1.000000000000000000, 0.0000000000000000000 ) ) ;
#173 = PLANE ( 'NONE',  #273 ) ;
#174 = DIRECTION ( 'NONE',  ( 0.0000000000000000000, -1.000000000000000000, 0.0000000000000000000 ) ) ;
#175 = FACE_BOUND ( 'NONE', #80, .T. ) ;
#176 = PLANE ( 'NONE',  #1 ) ;
#177 = EDGE_CURVE ( 'NONE', #272, #148, #146, .T. ) ;
#178 = ORIENTED_EDGE ( 'NONE', *, *, #241, .T. ) ;
#179 = DIRECTION ( 'NONE',  ( 0.0000000000000000000, 0.0000000000000000000, 1.000000000000000000 ) ) ;
#180 = DIRECTION ( 'NONE',  ( -1.000000000000000000, 0.0000000000000000000, 0.0000000000000000000 ) ) ;
#181 = CARTESIAN_POINT ( 'NONE',  ( 7.999999999999981300, 9.000000000000000000, 3.000000000000000000 ) ) ;
#182 = PRODUCT_DEFINITION ( 'UNKNOWN', '', #196, #111 ) ;
#183 = CARTESIAN_POINT ( 'NONE',  ( 6.100000000000000500, 4.500000000000000000, 3.000000000000000000 ) ) ;
#184 = DIRECTION ( 'NONE',  ( -0.0000000000000000000, -0.0000000000000000000, -1.000000000000000000 ) ) ;
#185 = FACE_OUTER_BOUND ( 'NONE', #225, .T. ) ;
#186 = ORIENTED_EDGE ( 'NONE', *, *, #177, .F. ) ;
#187 = ADVANCED_BREP_SHAPE_REPRESENTATION ( '096p0090903m4', ( #89, #165 ), #24 ) ;
#188 = ORIENTED_EDGE ( 'NONE', *, *, #215, .F. ) ;
#189 = VECTOR ( 'NONE', #274, 1000.000000000000000 ) ;
#190 = VECTOR ( 'NONE', #303, 1000.000000000000000 ) ;
#191 = ORIENTED_EDGE ( 'NONE', *, *, #149, .F. ) ;
#192 = EDGE_CURVE ( 'NONE', #231, #330, #4, .T. ) ;
#193 = CARTESIAN_POINT ( 'NONE',  ( 7.999999999999979600, 1.357204279517353100E-015, 3.000000000000000000 ) ) ;
#194 = DIRECTION ( 'NONE',  ( 0.0000000000000000000, 0.0000000000000000000, -1.000000000000000000 ) ) ;
#195 = CARTESIAN_POINT ( 'NONE',  ( 9.000000000000000000, 1.102145718440139500E-015, 3.000000000000000000 ) ) ;
#196 = PRODUCT_DEFINITION_FORMATION_WITH_SPECIFIED_SOURCE ( 'ANY', '', #57, .NOT_KNOWN. ) ;
#197 = PLANE ( 'NONE',  #205 ) ;
#198 = LINE ( 'NONE', #324, #55 ) ;
#199 = PLANE ( 'NONE',  #238 ) ;
#200 = LINE ( 'NONE', #30, #134 ) ;
#201 = ORIENTED_EDGE ( 'NONE', *, *, #82, .F. ) ;
#202 = CARTESIAN_POINT ( 'NONE',  ( 0.0000000000000000000, 0.0000000000000000000, 3.000000000000000000 ) ) ;
#203 = DIRECTION ( 'NONE',  ( -1.000000000000000000, 0.0000000000000000000, -0.0000000000000000000 ) ) ;
#204 = DIRECTION ( 'NONE',  ( 1.000000000000000000, 0.0000000000000000000, 0.0000000000000000000 ) ) ;
#205 = AXIS2_PLACEMENT_3D ( 'NONE', #202, #204, #194 ) ;
#206 = EDGE_LOOP ( 'NONE', ( #316, #41, #116, #186 ) ) ;
#207 = PLANE ( 'NONE',  #170 ) ;
#208 = EDGE_CURVE ( 'NONE', #288, #231, #275, .T. ) ;
#209 = SHAPE_DEFINITION_REPRESENTATION ( #294, #187 ) ;
#210 = VECTOR ( 'NONE', #340, 1000.000000000000000 ) ;
#211 = CARTESIAN_POINT ( 'NONE',  ( 0.0000000000000000000, 9.000000000000000000, 0.0000000000000000000 ) ) ;
#212 = DIRECTION ( 'NONE',  ( 0.0000000000000000000, -0.0000000000000000000, -1.000000000000000000 ) ) ;
#213 = ORIENTED_EDGE ( 'NONE', *, *, #208, .T. ) ;
#214 = EDGE_LOOP ( 'NONE', ( #139, #328, #52, #33, #119, #300 ) ) ;
#215 = EDGE_CURVE ( 'NONE', #330, #53, #12, .T. ) ;
#216 = EDGE_LOOP ( 'NONE', ( #79, #6, #277, #213 ) ) ;
#217 = VECTOR ( 'NONE', #50, 1000.000000000000000 ) ;
#218 = PRODUCT_RELATED_PRODUCT_CATEGORY ( 'part', '', ( #57 ) ) ;
#219 = VECTOR ( 'NONE', #143, 1000.000000000000000 ) ;
#220 = DIRECTION ( 'NONE',  ( 0.0000000000000000000, -1.000000000000000000, 0.0000000000000000000 ) ) ;
#221 =( NAMED_UNIT ( * ) SI_UNIT ( $, .STERADIAN. ) SOLID_ANGLE_UNIT ( ) );
#222 = EDGE_CURVE ( 'NONE', #148, #272, #337, .T. ) ;
#223 = DIRECTION ( 'NONE',  ( 0.0000000000000000000, 0.0000000000000000000, -1.000000000000000000 ) ) ;
#224 = PLANE ( 'NONE',  #136 ) ;
#225 = EDGE_LOOP ( 'NONE', ( #342, #88, #34, #266 ) ) ;
#226 = CARTESIAN_POINT ( 'NONE',  ( 0.0000000000000000000, 9.000000000000000000, 3.000000000000000000 ) ) ;
#227 = EDGE_CURVE ( 'NONE', #53, #288, #198, .T. ) ;
#228 = VECTOR ( 'NONE', #174, 1000.000000000000000 ) ;
#229 = ORIENTED_EDGE ( 'NONE', *, *, #98, .T. ) ;
#230 = CARTESIAN_POINT ( 'NONE',  ( 4.500000000000000900, 4.500000000000000000, 3.000000000000000000 ) ) ;
#231 = VERTEX_POINT ( 'NONE', #282 ) ;
#232 = DIRECTION ( 'NONE',  ( -0.7071067811865513500, 0.0000000000000000000, -0.7071067811865438000 ) ) ;
#233 = DIRECTION ( 'NONE',  ( 0.7071067811865438000, 0.0000000000000000000, -0.7071067811865513500 ) ) ;
#234 = SURFACE_STYLE_USAGE ( .BOTH. , #249 ) ;
#235 = DIRECTION ( 'NONE',  ( -1.000000000000000000, 0.0000000000000000000, 0.0000000000000000000 ) ) ;
#236 = FACE_OUTER_BOUND ( 'NONE', #137, .T. ) ;
#237 = ORIENTED_EDGE ( 'NONE', *, *, #38, .T. ) ;
#238 = AXIS2_PLACEMENT_3D ( 'NONE', #195, #180, #179 ) ;
#239 = EDGE_LOOP ( 'NONE', ( #104, #271, #188, #122 ) ) ;
#240 = FACE_OUTER_BOUND ( 'NONE', #216, .T. ) ;
#241 = EDGE_CURVE ( 'NONE', #21, #53, #262, .T. ) ;
#242 = VERTEX_POINT ( 'NONE', #276 ) ;
#243 = ORIENTED_EDGE ( 'NONE', *, *, #227, .T. ) ;
#244 = AXIS2_PLACEMENT_3D ( 'NONE', #35, #45, #25 ) ;
#245 = UNCERTAINTY_MEASURE_WITH_UNIT (LENGTH_MEASURE( 1.000000000000000100E-005 ), #63, 'distance_accuracy_value', 'NONE');
#246 = CARTESIAN_POINT ( 'NONE',  ( 1.000000000000017500, 9.000000000000000000, 3.000000000000000000 ) ) ;
#247 =( NAMED_UNIT ( * ) PLANE_ANGLE_UNIT ( ) SI_UNIT ( $, .RADIAN. ) );
#248 =( LENGTH_UNIT ( ) NAMED_UNIT ( * ) SI_UNIT ( .MILLI., .METRE. ) );
#249 = SURFACE_SIDE_STYLE ('',( #254 ) ) ;
#250 = PRESENTATION_STYLE_ASSIGNMENT (( #65 ) ) ;
#251 = DIRECTION ( 'NONE',  ( 0.7071067811865515700, -0.0000000000000000000, -0.7071067811865435800 ) ) ;
#252 = VECTOR ( 'NONE', #251, 1000.000000000000000 ) ;
#253 = PLANE ( 'NONE',  #84 ) ;
#254 = SURFACE_STYLE_FILL_AREA ( #263 ) ;
#255 = ORIENTED_EDGE ( 'NONE', *, *, #38, .F. ) ;
#256 = DIRECTION ( 'NONE',  ( -0.0000000000000000000, -0.0000000000000000000, -1.000000000000000000 ) ) ;
#257 = CARTESIAN_POINT ( 'NONE',  ( 0.0000000000000000000, 9.000000000000000000, 0.0000000000000000000 ) ) ;
#258 = CARTESIAN_POINT ( 'NONE',  ( 7.999999999999981300, 9.000000000000000000, 3.000000000000000000 ) ) ;
#259 = CARTESIAN_POINT ( 'NONE',  ( 2.900000000000000800, 4.500000000000000000, 3.000000000000000000 ) ) ;
#260 = CARTESIAN_POINT ( 'NONE',  ( 6.100000000000000500, 4.500000000000000000, 0.0000000000000000000 ) ) ;
#261 = CARTESIAN_POINT ( 'NONE',  ( 7.999999999999981300, 1.734723475976807100E-015, 2.999999999999999600 ) ) ;
#262 = LINE ( 'NONE', #310, #189 ) ;
#263 = FILL_AREA_STYLE ('',( #37 ) ) ;
#264 = COLOUR_RGB ( '',1.000000000000000000, 1.000000000000000000, 1.000000000000000000 ) ;
#265 = ORIENTED_EDGE ( 'NONE', *, *, #270, .F. ) ;
#266 = ORIENTED_EDGE ( 'NONE', *, *, #314, .F. ) ;
#267 = AXIS2_PLACEMENT_3D ( 'NONE', #17, #13, #11 ) ;
#268 = VECTOR ( 'NONE', #322, 1000.000000000000000 ) ;
#269 = CIRCLE ( 'NONE', #267, 1.599999999999999900 ) ;
#270 = EDGE_CURVE ( 'NONE', #339, #305, #131, .T. ) ;
#271 = ORIENTED_EDGE ( 'NONE', *, *, #227, .F. ) ;
#272 = VERTEX_POINT ( 'NONE', #260 ) ;
#273 = AXIS2_PLACEMENT_3D ( 'NONE', #181, #158, #156 ) ;
#274 = DIRECTION ( 'NONE',  ( -0.0000000000000000000, -0.0000000000000000000, -1.000000000000000000 ) ) ;
#275 = LINE ( 'NONE', #336, #64 ) ;
#276 = CARTESIAN_POINT ( 'NONE',  ( 1.000000000000017300, 9.000000000000000000, 3.000000000000000000 ) ) ;
#277 = ORIENTED_EDGE ( 'NONE', *, *, #125, .T. ) ;
#278 = VERTEX_POINT ( 'NONE', #259 ) ;
#279 = DIRECTION ( 'NONE',  ( -0.7071067811865515700, -8.659274570719404700E-017, 0.7071067811865435800 ) ) ;
#280 = STYLED_ITEM ( 'NONE', ( #123 ), #89 ) ;
#281 = DIRECTION ( 'NONE',  ( 0.0000000000000000000, 1.000000000000000000, 0.0000000000000000000 ) ) ;
#282 = CARTESIAN_POINT ( 'NONE',  ( 0.0000000000000000000, 0.0000000000000000000, 0.0000000000000000000 ) ) ;
#283 = LINE ( 'NONE', #160, #217 ) ;
#284 = DIRECTION ( 'NONE',  ( 1.000000000000000000, 0.0000000000000000000, 0.0000000000000000000 ) ) ;
#285 = DIRECTION ( 'NONE',  ( 0.0000000000000000000, 0.0000000000000000000, 1.000000000000000000 ) ) ;
#286 = CARTESIAN_POINT ( 'NONE',  ( 1.000000000000017500, 6.123031769111991100E-017, 3.000000000000000000 ) ) ;
#287 = LINE ( 'NONE', #126, #83 ) ;
#288 = VERTEX_POINT ( 'NONE', #257 ) ;
#289 = LINE ( 'NONE', #323, #228 ) ;
#290 = PRESENTATION_LAYER_ASSIGNMENT (  '', '', ( #280 ) ) ;
#291 = ORIENTED_EDGE ( 'NONE', *, *, #130, .T. ) ;
#292 = EDGE_CURVE ( 'NONE', #164, #21, #49, .T. ) ;
#293 = CARTESIAN_POINT ( 'NONE',  ( 4.500000000000000900, 4.500000000000000000, 0.0000000000000000000 ) ) ;
#294 = PRODUCT_DEFINITION_SHAPE ( 'NONE', 'NONE',  #182 ) ;
#295 = CARTESIAN_POINT ( 'NONE',  ( 0.0000000000000000000, 0.0000000000000000000, 1.999999999999993100 ) ) ;
#296 = ADVANCED_FACE ( 'NONE', ( #121 ), #253, .F. ) ;
#297 = ADVANCED_FACE ( 'NONE', ( #185 ), #315, .F. ) ;
#298 = ADVANCED_FACE ( 'NONE', ( #319 ), #224, .F. ) ;
#299 = ADVANCED_FACE ( 'NONE', ( #115, #175 ), #207, .T. ) ;
#300 = ORIENTED_EDGE ( 'NONE', *, *, #270, .T. ) ;
#301 = ADVANCED_FACE ( 'NONE', ( #240 ), #197, .F. ) ;
#302 = FACE_OUTER_BOUND ( 'NONE', #60, .T. ) ;
#303 = DIRECTION ( 'NONE',  ( -0.7071067811865513500, -8.659274570719402300E-017, -0.7071067811865438000 ) ) ;
#304 = ADVANCED_FACE ( 'NONE', ( #108 ), #199, .F. ) ;
#305 = VERTEX_POINT ( 'NONE', #193 ) ;
#306 = CARTESIAN_POINT ( 'NONE',  ( 1.000000000000018200, 0.0000000000000000000, 3.000000000000000400 ) ) ;
#307 = ADVANCED_FACE ( 'NONE', ( #236 ), #173, .F. ) ;
#308 = ORIENTED_EDGE ( 'NONE', *, *, #133, .F. ) ;
#309 = ADVANCED_FACE ( 'NONE', ( #302, #31 ), #147, .F. ) ;
#310 = CARTESIAN_POINT ( 'NONE',  ( 9.000000000000000000, 9.000000000000000000, 3.000000000000000000 ) ) ;
#311 = ADVANCED_FACE ( 'NONE', ( #138 ), #176, .F. ) ;
#312 = ADVANCED_FACE ( 'NONE', ( #101 ), #144, .F. ) ;
#313 = AXIS2_PLACEMENT_3D ( 'NONE', #153, #159, #145 ) ;
#314 = EDGE_CURVE ( 'NONE', #278, #148, #72, .T. ) ;
#315 = CYLINDRICAL_SURFACE ( 'NONE', #117, 1.599999999999999900 ) ;
#316 = ORIENTED_EDGE ( 'NONE', *, *, #114, .F. ) ;
#317 = MECHANICAL_DESIGN_GEOMETRIC_PRESENTATION_REPRESENTATION (  '', ( #280 ), #333 ) ;
#318 = COLOUR_RGB ( '',1.000000000000000000, 1.000000000000000000, 1.000000000000000000 ) ;
#319 = FACE_OUTER_BOUND ( 'NONE', #7, .T. ) ;
#320 = VECTOR ( 'NONE', #281, 1000.000000000000000 ) ;
#321 = ORIENTED_EDGE ( 'NONE', *, *, #140, .F. ) ;
#322 = DIRECTION ( 'NONE',  ( 0.0000000000000000000, 1.000000000000000000, 0.0000000000000000000 ) ) ;
#323 = CARTESIAN_POINT ( 'NONE',  ( 9.000000000000000000, 1.102145718440139500E-015, 1.999999999999993100 ) ) ;
#324 = CARTESIAN_POINT ( 'NONE',  ( 0.0000000000000000000, 9.000000000000000000, 0.0000000000000000000 ) ) ;
#325 = VECTOR ( 'NONE', #279, 1000.000000000000000 ) ;
#326 = DIRECTION ( 'NONE',  ( -0.0000000000000000000, -1.000000000000000000, -0.0000000000000000000 ) ) ;
#327 = VECTOR ( 'NONE', #20, 1000.000000000000000 ) ;
#328 = ORIENTED_EDGE ( 'NONE', *, *, #77, .T. ) ;
#329 = DIRECTION ( 'NONE',  ( -1.000000000000000000, -0.0000000000000000000, -0.0000000000000000000 ) ) ;
#330 = VERTEX_POINT ( 'NONE', #120 ) ;
#331 = UNCERTAINTY_MEASURE_WITH_UNIT (LENGTH_MEASURE( 1.000000000000000100E-005 ), #248, 'distance_accuracy_value', 'NONE');
#332 = DIRECTION ( 'NONE',  ( 1.000000000000000000, 0.0000000000000000000, 0.0000000000000000000 ) ) ;
#333 =( GEOMETRIC_REPRESENTATION_CONTEXT ( 3 ) GLOBAL_UNCERTAINTY_ASSIGNED_CONTEXT ( ( #331 ) ) GLOBAL_UNIT_ASSIGNED_CONTEXT ( ( #248, #247, #221 ) ) REPRESENTATION_CONTEXT ( 'NONE', 'WORKASPACE' ) );
#334 = DIRECTION ( 'NONE',  ( 0.0000000000000000000, 0.0000000000000000000, 1.000000000000000000 ) ) ;
#335 = CARTESIAN_POINT ( 'NONE',  ( 4.500000000000000900, 4.500000000000000000, 0.0000000000000000000 ) ) ;
#336 = CARTESIAN_POINT ( 'NONE',  ( 0.0000000000000000000, 0.0000000000000000000, 0.0000000000000000000 ) ) ;
#337 = CIRCLE ( 'NONE', #29, 1.599999999999999900 ) ;
#338 = LINE ( 'NONE', #22, #327 ) ;
#339 = VERTEX_POINT ( 'NONE', #118 ) ;
#340 = DIRECTION ( 'NONE',  ( 1.000000000000000000, 1.224606353822377300E-016, 0.0000000000000000000 ) ) ;
#341 = VERTEX_POINT ( 'NONE', #96 ) ;
#342 = ORIENTED_EDGE ( 'NONE', *, *, #5, .T. ) ;
ENDSEC;
END-ISO-10303-21;
