ISO-10303-21;
HEADER;
FILE_DESCRIPTION (( 'STEP AP214' ),
    '1' );
FILE_NAME ('096928.STEP',
    '2014-08-18T10:44:44',
    ( '' ),
    ( '' ),
    'SwSTEP 2.0',
    'SolidWorks 2014',
    '' );
FILE_SCHEMA (( 'AUTOMOTIVE_DESIGN' ));
ENDSEC;

DATA;
#1 = CARTESIAN_POINT ( 'NONE',  ( -8.999999999999998200, 3.999999999999997300, -9.500000000000000000 ) ) ;
#2 = LINE ( 'NONE', #115, #171 ) ;
#3 = EDGE_CURVE ( 'NONE', #395, #147, #116, .T. ) ;
#4 = DIRECTION ( 'NONE',  ( 1.000000000000000000, 0.0000000000000000000, 0.0000000000000000000 ) ) ;
#5 = CARTESIAN_POINT ( 'NONE',  ( -4.999999999999999100, 3.999999999999997300, -9.500000000000000000 ) ) ;
#6 = ADVANCED_FACE ( 'NONE', ( #333 ), #259, .F. ) ;
#7 = DIRECTION ( 'NONE',  ( 1.000000000000000000, 0.0000000000000000000, -0.0000000000000000000 ) ) ;
#8 = DIRECTION ( 'NONE',  ( -1.000000000000000000, 0.0000000000000000000, 0.0000000000000000000 ) ) ;
#9 = EDGE_CURVE ( 'NONE', #69, #389, #187, .T. ) ;
#10 = DIRECTION ( 'NONE',  ( -1.000000000000000000, -0.0000000000000000000, -0.0000000000000000000 ) ) ;
#11 = CARTESIAN_POINT ( 'NONE',  ( 9.000000000000001800, -1.224606353822385100E-016, 9.500000000000000000 ) ) ;
#12 = DIRECTION ( 'NONE',  ( -1.734723475976807100E-016, 1.000000000000000000, 0.0000000000000000000 ) ) ;
#13 = CARTESIAN_POINT ( 'NONE',  ( 8.999999999999998200, 4.000000000000000000, 9.500000000000000000 ) ) ;
#14 = ORIENTED_EDGE ( 'NONE', *, *, #197, .T. ) ;
#15 = LINE ( 'NONE', #101, #338 ) ;
#16 = PRODUCT ( '096928', '096928', '', ( #130 ) ) ;
#17 = AXIS2_PLACEMENT_3D ( 'NONE', #248, #100, #316 ) ;
#18 = ORIENTED_EDGE ( 'NONE', *, *, #20, .F. ) ;
#19 = UNCERTAINTY_MEASURE_WITH_UNIT (LENGTH_MEASURE( 1.000000000000000100E-005 ), #188, 'distance_accuracy_value', 'NONE');
#20 = EDGE_CURVE ( 'NONE', #403, #147, #353, .T. ) ;
#21 = ORIENTED_EDGE ( 'NONE', *, *, #22, .F. ) ;
#22 = EDGE_CURVE ( 'NONE', #147, #92, #305, .T. ) ;
#23 =( GEOMETRIC_REPRESENTATION_CONTEXT ( 3 ) GLOBAL_UNCERTAINTY_ASSIGNED_CONTEXT ( ( #349 ) ) GLOBAL_UNIT_ASSIGNED_CONTEXT ( ( #272, #97, #311 ) ) REPRESENTATION_CONTEXT ( 'NONE', 'WORKASPACE' ) );
#24 = PRESENTATION_STYLE_ASSIGNMENT (( #59 ) ) ;
#25 = FILL_AREA_STYLE ('',( #340 ) ) ;
#26 = ORIENTED_EDGE ( 'NONE', *, *, #393, .F. ) ;
#27 = VECTOR ( 'NONE', #225, 1000.000000000000000 ) ;
#28 =( LENGTH_UNIT ( ) NAMED_UNIT ( * ) SI_UNIT ( .MILLI., .METRE. ) );
#29 = LINE ( 'NONE', #180, #267 ) ;
#30 = CARTESIAN_POINT ( 'NONE',  ( -4.999999999999999100, 3.999999999999997300, 9.500000000000000000 ) ) ;
#31 = VECTOR ( 'NONE', #82, 1000.000000000000000 ) ;
#32 = CARTESIAN_POINT ( 'NONE',  ( -8.999999999999998200, -2.326752072262518000E-015, -9.500000000000000000 ) ) ;
#33 = ORIENTED_EDGE ( 'NONE', *, *, #107, .F. ) ;
#34 = ORIENTED_EDGE ( 'NONE', *, *, #354, .F. ) ;
#35 = CARTESIAN_POINT ( 'NONE',  ( -8.999999999999998200, 3.999999999999997300, 9.500000000000000000 ) ) ;
#36 = PRODUCT_DEFINITION ( 'UNKNOWN', '', #58, #254 ) ;
#37 = DIRECTION ( 'NONE',  ( -1.734723475976807100E-016, 1.000000000000000000, 0.0000000000000000000 ) ) ;
#38 = EDGE_CURVE ( 'NONE', #317, #69, #61, .T. ) ;
#39 = CIRCLE ( 'NONE', #67, 3.399999999999999900 ) ;
#40 = EDGE_LOOP ( 'NONE', ( #223, #160 ) ) ;
#41 = CARTESIAN_POINT ( 'NONE',  ( -8.999999999999998200, 3.999999999999997300, -9.500000000000000000 ) ) ;
#42 = ADVANCED_FACE ( 'NONE', ( #295 ), #296, .F. ) ;
#43 = DIRECTION ( 'NONE',  ( 1.000000000000000000, 0.0000000000000000000, -0.0000000000000000000 ) ) ;
#44 = DIRECTION ( 'NONE',  ( -1.000000000000000000, -1.734723475976806600E-016, 0.0000000000000000000 ) ) ;
#45 = LINE ( 'NONE', #170, #341 ) ;
#46 = DIRECTION ( 'NONE',  ( -1.000000000000000000, -1.734723475976806600E-016, 0.0000000000000000000 ) ) ;
#47 = VECTOR ( 'NONE', #309, 1000.000000000000000 ) ;
#48 = ORIENTED_EDGE ( 'NONE', *, *, #60, .F. ) ;
#49 = VERTEX_POINT ( 'NONE', #246 ) ;
#50 = EDGE_CURVE ( 'NONE', #317, #265, #382, .T. ) ;
#51 = PRESENTATION_STYLE_ASSIGNMENT (( #217 ) ) ;
#52 = VECTOR ( 'NONE', #292, 1000.000000000000000 ) ;
#53 = ORIENTED_EDGE ( 'NONE', *, *, #60, .T. ) ;
#54 = DIRECTION ( 'NONE',  ( 1.000000000000000000, 4.336808689942021200E-016, 0.0000000000000000000 ) ) ;
#55 = VECTOR ( 'NONE', #77, 1000.000000000000000 ) ;
#56 = EDGE_LOOP ( 'NONE', ( #219, #18, #282, #14 ) ) ;
#57 = ORIENTED_EDGE ( 'NONE', *, *, #291, .F. ) ;
#58 = PRODUCT_DEFINITION_FORMATION_WITH_SPECIFIED_SOURCE ( 'ANY', '', #16, .NOT_KNOWN. ) ;
#59 = SURFACE_STYLE_USAGE ( .BOTH. , #244 ) ;
#60 = EDGE_CURVE ( 'NONE', #121, #317, #143, .T. ) ;
#61 = LINE ( 'NONE', #293, #55 ) ;
#62 = DIRECTION ( 'NONE',  ( -1.734723475976807100E-016, 1.000000000000000000, 0.0000000000000000000 ) ) ;
#63 =( NAMED_UNIT ( * ) SI_UNIT ( $, .STERADIAN. ) SOLID_ANGLE_UNIT ( ) );
#64 = ORIENTED_EDGE ( 'NONE', *, *, #89, .T. ) ;
#65 = DIRECTION ( 'NONE',  ( 0.0000000000000000000, 0.0000000000000000000, -1.000000000000000000 ) ) ;
#66 = EDGE_LOOP ( 'NONE', ( #80, #397, #368, #231, #177, #390, #33, #21 ) ) ;
#67 = AXIS2_PLACEMENT_3D ( 'NONE', #249, #62, #276 ) ;
#68 = EDGE_LOOP ( 'NONE', ( #299, #57, #337, #327 ) ) ;
#69 = VERTEX_POINT ( 'NONE', #263 ) ;
#70 = CARTESIAN_POINT ( 'NONE',  ( 9.000000000000001800, -1.224606353822385100E-016, 9.500000000000000000 ) ) ;
#71 = CARTESIAN_POINT ( 'NONE',  ( 9.000000000000001800, -1.224606353822385100E-016, 9.500000000000000000 ) ) ;
#72 = VECTOR ( 'NONE', #10, 1000.000000000000000 ) ;
#73 = ADVANCED_FACE ( 'NONE', ( #277, #364 ), #83, .F. ) ;
#74 = CARTESIAN_POINT ( 'NONE',  ( -8.999999999999998200, -2.326752072262518000E-015, -9.500000000000000000 ) ) ;
#75 = CARTESIAN_POINT ( 'NONE',  ( -3.399999999999999900, -4.059252933785728600E-015, 0.0000000000000000000 ) ) ;
#76 = CARTESIAN_POINT ( 'NONE',  ( 5.000000000000000900, 5.499999999999999100, 9.500000000000000000 ) ) ;
#77 = DIRECTION ( 'NONE',  ( 0.0000000000000000000, 1.000000000000000000, 0.0000000000000000000 ) ) ;
#78 = AXIS2_PLACEMENT_3D ( 'NONE', #288, #4, #140 ) ;
#79 = CARTESIAN_POINT ( 'NONE',  ( -8.999999999999998200, -2.326752072262518000E-015, 9.500000000000000000 ) ) ;
#80 = ORIENTED_EDGE ( 'NONE', *, *, #3, .F. ) ;
#81 = DIRECTION ( 'NONE',  ( -0.0000000000000000000, -0.0000000000000000000, -1.000000000000000000 ) ) ;
#82 = DIRECTION ( 'NONE',  ( -0.0000000000000000000, -0.0000000000000000000, -1.000000000000000000 ) ) ;
#83 = PLANE ( 'NONE',  #163 ) ;
#84 = VERTEX_POINT ( 'NONE', #298 ) ;
#85 = SURFACE_STYLE_FILL_AREA ( #189 ) ;
#86 = VERTEX_POINT ( 'NONE', #407 ) ;
#87 = PRODUCT_RELATED_PRODUCT_CATEGORY ( 'part', '', ( #16 ) ) ;
#88 = FACE_OUTER_BOUND ( 'NONE', #211, .T. ) ;
#89 = EDGE_CURVE ( 'NONE', #214, #92, #29, .T. ) ;
#90 = DIRECTION ( 'NONE',  ( -1.000000000000000000, -8.673617379884036500E-016, 0.0000000000000000000 ) ) ;
#91 = CARTESIAN_POINT ( 'NONE',  ( -8.999999999999998200, -2.326752072262518000E-015, 9.500000000000000000 ) ) ;
#92 = VERTEX_POINT ( 'NONE', #32 ) ;
#93 = AXIS2_PLACEMENT_3D ( 'NONE', #174, #198, #7 ) ;
#94 = VERTEX_POINT ( 'NONE', #281 ) ;
#95 = LINE ( 'NONE', #71, #406 ) ;
#96 = CARTESIAN_POINT ( 'NONE',  ( 9.000000000000001800, -1.224606353822385100E-016, -9.500000000000000000 ) ) ;
#97 =( NAMED_UNIT ( * ) PLANE_ANGLE_UNIT ( ) SI_UNIT ( $, .RADIAN. ) );
#98 = LINE ( 'NONE', #35, #72 ) ;
#99 =( NAMED_UNIT ( * ) SI_UNIT ( $, .STERADIAN. ) SOLID_ANGLE_UNIT ( ) );
#100 = DIRECTION ( 'NONE',  ( 0.0000000000000000000, 0.0000000000000000000, 1.000000000000000000 ) ) ;
#101 = CARTESIAN_POINT ( 'NONE',  ( 5.000000000000000900, 3.999999999999998200, -9.500000000000000000 ) ) ;
#102 = ORIENTED_EDGE ( 'NONE', *, *, #377, .T. ) ;
#103 = LINE ( 'NONE', #351, #255 ) ;
#104 = CARTESIAN_POINT ( 'NONE',  ( 9.000000000000001800, -1.224606353822385100E-016, -9.500000000000000000 ) ) ;
#105 = DIRECTION ( 'NONE',  ( -1.734723475976807100E-016, 1.000000000000000000, 0.0000000000000000000 ) ) ;
#106 = DIRECTION ( 'NONE',  ( -0.0000000000000000000, -1.000000000000000000, -0.0000000000000000000 ) ) ;
#107 = EDGE_CURVE ( 'NONE', #92, #133, #119, .T. ) ;
#108 = LINE ( 'NONE', #96, #47 ) ;
#109 = CARTESIAN_POINT ( 'NONE',  ( 5.000000000000000900, 3.999999999999998200, 9.500000000000000000 ) ) ;
#110 = CARTESIAN_POINT ( 'NONE',  ( 5.777789833161707600E-031, -3.469446951953614200E-015, 0.0000000000000000000 ) ) ;
#111 = CARTESIAN_POINT ( 'NONE',  ( 5.000000000000000900, 3.999999999999998200, 9.500000000000000000 ) ) ;
#112 = SURFACE_STYLE_FILL_AREA ( #25 ) ;
#113 = EDGE_LOOP ( 'NONE', ( #132, #274, #193, #164 ) ) ;
#114 = ORIENTED_EDGE ( 'NONE', *, *, #207, .F. ) ;
#115 = CARTESIAN_POINT ( 'NONE',  ( -4.999999999999999100, 5.499999999999998200, -9.500000000000000000 ) ) ;
#116 = LINE ( 'NONE', #41, #27 ) ;
#117 = CARTESIAN_POINT ( 'NONE',  ( -4.999999999999999100, 3.999999999999997300, -9.500000000000000000 ) ) ;
#118 = AXIS2_PLACEMENT_3D ( 'NONE', #111, #329, #146 ) ;
#119 = LINE ( 'NONE', #221, #209 ) ;
#120 = LINE ( 'NONE', #297, #31 ) ;
#121 = VERTEX_POINT ( 'NONE', #319 ) ;
#122 = CARTESIAN_POINT ( 'NONE',  ( -8.999999999999998200, 3.999999999999997300, 9.500000000000000000 ) ) ;
#123 = ORIENTED_EDGE ( 'NONE', *, *, #294, .T. ) ;
#124 = VECTOR ( 'NONE', #326, 1000.000000000000000 ) ;
#125 = ORIENTED_EDGE ( 'NONE', *, *, #197, .F. ) ;
#126 = EDGE_CURVE ( 'NONE', #307, #121, #45, .T. ) ;
#127 = APPLICATION_PROTOCOL_DEFINITION ( 'draft international standard', 'automotive_design', 1998, #162 ) ;
#128 = VECTOR ( 'NONE', #81, 1000.000000000000000 ) ;
#129 = DIRECTION ( 'NONE',  ( -1.000000000000000000, -1.224606353822377500E-016, 0.0000000000000000000 ) ) ;
#130 = PRODUCT_CONTEXT ( 'NONE', #162, 'mechanical' ) ;
#131 = FACE_OUTER_BOUND ( 'NONE', #343, .T. ) ;
#132 = ORIENTED_EDGE ( 'NONE', *, *, #227, .T. ) ;
#133 = VERTEX_POINT ( 'NONE', #104 ) ;
#134 = DIRECTION ( 'NONE',  ( 1.000000000000000000, 1.224606353822377500E-016, -0.0000000000000000000 ) ) ;
#135 = COLOUR_RGB ( '',1.000000000000000000, 1.000000000000000000, 1.000000000000000000 ) ;
#136 = VECTOR ( 'NONE', #344, 1000.000000000000000 ) ;
#137 = ORIENTED_EDGE ( 'NONE', *, *, #22, .T. ) ;
#138 = DIRECTION ( 'NONE',  ( -0.0000000000000000000, -0.0000000000000000000, -1.000000000000000000 ) ) ;
#139 = EDGE_CURVE ( 'NONE', #310, #370, #182, .T. ) ;
#140 = DIRECTION ( 'NONE',  ( 0.0000000000000000000, 0.0000000000000000000, -1.000000000000000000 ) ) ;
#141 = ADVANCED_FACE ( 'NONE', ( #257 ), #222, .F. ) ;
#142 = DIRECTION ( 'NONE',  ( -1.734723475976807300E-016, 1.000000000000000000, -0.0000000000000000000 ) ) ;
#143 = LINE ( 'NONE', #13, #372 ) ;
#144 = AXIS2_PLACEMENT_3D ( 'NONE', #284, #105, #266 ) ;
#145 = DIRECTION ( 'NONE',  ( -0.0000000000000000000, -0.0000000000000000000, -1.000000000000000000 ) ) ;
#146 = DIRECTION ( 'NONE',  ( 0.0000000000000000000, 0.0000000000000000000, 1.000000000000000000 ) ) ;
#147 = VERTEX_POINT ( 'NONE', #1 ) ;
#148 = DIRECTION ( 'NONE',  ( 1.000000000000000000, 1.734723475976807100E-016, 0.0000000000000000000 ) ) ;
#149 = ORIENTED_EDGE ( 'NONE', *, *, #354, .T. ) ;
#150 = EDGE_CURVE ( 'NONE', #86, #94, #2, .T. ) ;
#151 = CARTESIAN_POINT ( 'NONE',  ( 8.999999999999998200, 4.000000000000000000, 9.500000000000000000 ) ) ;
#152 = VECTOR ( 'NONE', #175, 1000.000000000000000 ) ;
#153 = CARTESIAN_POINT ( 'NONE',  ( 5.777789833161707600E-031, -3.469446951953614200E-015, 0.0000000000000000000 ) ) ;
#154 = ORIENTED_EDGE ( 'NONE', *, *, #107, .T. ) ;
#155 = ORIENTED_EDGE ( 'NONE', *, *, #9, .T. ) ;
#156 = AXIS2_PLACEMENT_3D ( 'NONE', #11, #315, #129 ) ;
#157 = ORIENTED_EDGE ( 'NONE', *, *, #314, .F. ) ;
#158 = PLANE ( 'NONE',  #365 ) ;
#159 = CARTESIAN_POINT ( 'NONE',  ( 5.000000000000000900, 3.999999999999998200, -9.500000000000000000 ) ) ;
#160 = ORIENTED_EDGE ( 'NONE', *, *, #314, .T. ) ;
#161 = CIRCLE ( 'NONE', #278, 3.399999999999999900 ) ;
#162 = APPLICATION_CONTEXT ( 'automotive_design' ) ;
#163 = AXIS2_PLACEMENT_3D ( 'NONE', #178, #330, #148 ) ;
#164 = ORIENTED_EDGE ( 'NONE', *, *, #371, .T. ) ;
#165 = CARTESIAN_POINT ( 'NONE',  ( 8.999999999999998200, 4.000000000000000000, 9.500000000000000000 ) ) ;
#166 = APPLICATION_PROTOCOL_DEFINITION ( 'draft international standard', 'automotive_design', 1998, #345 ) ;
#167 = ORIENTED_EDGE ( 'NONE', *, *, #50, .F. ) ;
#168 = FACE_OUTER_BOUND ( 'NONE', #66, .T. ) ;
#169 = EDGE_LOOP ( 'NONE', ( #234, #367, #123, #375, #53, #363, #155, #102 ) ) ;
#170 = CARTESIAN_POINT ( 'NONE',  ( 9.000000000000001800, -1.224606353822385100E-016, 9.500000000000000000 ) ) ;
#171 = VECTOR ( 'NONE', #392, 1000.000000000000000 ) ;
#172 = ADVANCED_FACE ( 'NONE', ( #88 ), #208, .F. ) ;
#173 = EDGE_CURVE ( 'NONE', #94, #395, #399, .T. ) ;
#174 = CARTESIAN_POINT ( 'NONE',  ( -4.999999999999999100, 3.999999999999997300, 9.500000000000000000 ) ) ;
#175 = DIRECTION ( 'NONE',  ( -0.0000000000000000000, -0.0000000000000000000, -1.000000000000000000 ) ) ;
#176 = PLANE ( 'NONE',  #156 ) ;
#177 = ORIENTED_EDGE ( 'NONE', *, *, #400, .F. ) ;
#178 = CARTESIAN_POINT ( 'NONE',  ( -4.999999999999999100, 5.499999999999998200, 9.500000000000000000 ) ) ;
#179 = EDGE_LOOP ( 'NONE', ( #154, #210, #308, #64 ) ) ;
#180 = CARTESIAN_POINT ( 'NONE',  ( -8.999999999999998200, -2.326752072262518000E-015, 9.500000000000000000 ) ) ;
#181 = AXIS2_PLACEMENT_3D ( 'NONE', #383, #37, #258 ) ;
#182 = CIRCLE ( 'NONE', #144, 3.399999999999999900 ) ;
#183 = EDGE_CURVE ( 'NONE', #403, #214, #245, .T. ) ;
#184 = CIRCLE ( 'NONE', #181, 3.399999999999999900 ) ;
#185 = DIRECTION ( 'NONE',  ( 0.0000000000000000000, -1.000000000000000000, 0.0000000000000000000 ) ) ;
#186 = EDGE_CURVE ( 'NONE', #84, #403, #98, .T. ) ;
#187 = LINE ( 'NONE', #199, #196 ) ;
#188 =( LENGTH_UNIT ( ) NAMED_UNIT ( * ) SI_UNIT ( .MILLI., .METRE. ) );
#189 = FILL_AREA_STYLE ('',( #373 ) ) ;
#190 = PLANE ( 'NONE',  #191 ) ;
#191 = AXIS2_PLACEMENT_3D ( 'NONE', #30, #252, #65 ) ;
#192 = DIRECTION ( 'NONE',  ( -8.673617379884035500E-016, 1.000000000000000000, 0.0000000000000000000 ) ) ;
#193 = ORIENTED_EDGE ( 'NONE', *, *, #126, .F. ) ;
#194 = ADVANCED_FACE ( 'NONE', ( #322 ), #200, .F. ) ;
#195 = CARTESIAN_POINT ( 'NONE',  ( -4.999999999999999100, 3.999999999999997300, -9.500000000000000000 ) ) ;
#196 = VECTOR ( 'NONE', #8, 1000.000000000000000 ) ;
#197 = EDGE_CURVE ( 'NONE', #84, #395, #391, .T. ) ;
#198 = DIRECTION ( 'NONE',  ( 0.0000000000000000000, 0.0000000000000000000, 1.000000000000000000 ) ) ;
#199 = CARTESIAN_POINT ( 'NONE',  ( 5.000000000000000900, 5.499999999999999100, 9.500000000000000000 ) ) ;
#200 = CYLINDRICAL_SURFACE ( 'NONE', #306, 3.399999999999999900 ) ;
#201 = CARTESIAN_POINT ( 'NONE',  ( 5.777789833161707600E-031, -3.469446951953614200E-015, 0.0000000000000000000 ) ) ;
#202 = LINE ( 'NONE', #165, #136 ) ;
#203 = EDGE_LOOP ( 'NONE', ( #385, #239, #331, #347 ) ) ;
#204 = CLOSED_SHELL ( 'NONE', ( #224, #260, #6, #324, #141, #172, #42, #73, #350, #289, #381, #194 ) ) ;
#205 = FACE_OUTER_BOUND ( 'NONE', #179, .T. ) ;
#206 = ORIENTED_EDGE ( 'NONE', *, *, #20, .T. ) ;
#207 = EDGE_CURVE ( 'NONE', #49, #220, #161, .T. ) ;
#208 = PLANE ( 'NONE',  #262 ) ;
#209 = VECTOR ( 'NONE', #134, 1000.000000000000000 ) ;
#210 = ORIENTED_EDGE ( 'NONE', *, *, #371, .F. ) ;
#211 = EDGE_LOOP ( 'NONE', ( #253, #167, #48, #283 ) ) ;
#212 = CARTESIAN_POINT ( 'NONE',  ( 3.399999999999999900, -2.879640970121499800E-015, 4.163799117101000600E-016 ) ) ;
#213 = FACE_OUTER_BOUND ( 'NONE', #169, .T. ) ;
#214 = VERTEX_POINT ( 'NONE', #79 ) ;
#215 = DIRECTION ( 'NONE',  ( -1.000000000000000000, -4.336808689942021200E-016, 0.0000000000000000000 ) ) ;
#216 = VECTOR ( 'NONE', #229, 1000.000000000000000 ) ;
#217 = SURFACE_STYLE_USAGE ( .BOTH. , #402 ) ;
#218 = AXIS2_PLACEMENT_3D ( 'NONE', #70, #90, #303 ) ;
#219 = ORIENTED_EDGE ( 'NONE', *, *, #3, .T. ) ;
#220 = VERTEX_POINT ( 'NONE', #384 ) ;
#221 = CARTESIAN_POINT ( 'NONE',  ( 9.000000000000001800, -1.224606353822385100E-016, -9.500000000000000000 ) ) ;
#222 = PLANE ( 'NONE',  #218 ) ;
#223 = ORIENTED_EDGE ( 'NONE', *, *, #207, .T. ) ;
#224 = ADVANCED_FACE ( 'NONE', ( #131 ), #280, .F. ) ;
#225 = DIRECTION ( 'NONE',  ( -1.000000000000000000, -0.0000000000000000000, -0.0000000000000000000 ) ) ;
#226 = DIRECTION ( 'NONE',  ( 0.0000000000000000000, 0.0000000000000000000, 1.000000000000000000 ) ) ;
#227 = EDGE_CURVE ( 'NONE', #133, #388, #108, .T. ) ;
#228 = CARTESIAN_POINT ( 'NONE',  ( -3.400000000000000800, 5.499999999999998200, 0.0000000000000000000 ) ) ;
#229 = DIRECTION ( 'NONE',  ( -0.0000000000000000000, -1.000000000000000000, -0.0000000000000000000 ) ) ;
#230 = DIRECTION ( 'NONE',  ( -1.734723475976807300E-016, 1.000000000000000000, -0.0000000000000000000 ) ) ;
#231 = ORIENTED_EDGE ( 'NONE', *, *, #361, .F. ) ;
#232 = DIRECTION ( 'NONE',  ( -1.000000000000000000, -1.734723475976806600E-016, 0.0000000000000000000 ) ) ;
#233 =( GEOMETRIC_REPRESENTATION_CONTEXT ( 3 ) GLOBAL_UNCERTAINTY_ASSIGNED_CONTEXT ( ( #19 ) ) GLOBAL_UNIT_ASSIGNED_CONTEXT ( ( #188, #275, #99 ) ) REPRESENTATION_CONTEXT ( 'NONE', 'WORKASPACE' ) );
#234 = ORIENTED_EDGE ( 'NONE', *, *, #186, .T. ) ;
#235 = VECTOR ( 'NONE', #215, 1000.000000000000000 ) ;
#236 = ORIENTED_EDGE ( 'NONE', *, *, #268, .T. ) ;
#237 = VECTOR ( 'NONE', #269, 1000.000000000000000 ) ;
#238 = DIRECTION ( 'NONE',  ( 4.336808689942021200E-016, -1.000000000000000000, 0.0000000000000000000 ) ) ;
#239 = ORIENTED_EDGE ( 'NONE', *, *, #247, .F. ) ;
#240 = STYLED_ITEM ( 'NONE', ( #24 ), #261 ) ;
#241 = ORIENTED_EDGE ( 'NONE', *, *, #393, .T. ) ;
#242 = LINE ( 'NONE', #75, #396 ) ;
#243 = ORIENTED_EDGE ( 'NONE', *, *, #89, .F. ) ;
#244 = SURFACE_SIDE_STYLE ('',( #112 ) ) ;
#245 = LINE ( 'NONE', #91, #237 ) ;
#246 = CARTESIAN_POINT ( 'NONE',  ( -3.399999999999999900, -4.059252933785728600E-015, 0.0000000000000000000 ) ) ;
#247 = EDGE_CURVE ( 'NONE', #389, #94, #120, .T. ) ;
#248 = CARTESIAN_POINT ( 'NONE',  ( 0.0000000000000000000, 0.0000000000000000000, 0.0000000000000000000 ) ) ;
#249 = CARTESIAN_POINT ( 'NONE',  ( 5.777789833161707600E-031, -3.469446951953614200E-015, 0.0000000000000000000 ) ) ;
#250 =( NAMED_UNIT ( * ) PLANE_ANGLE_UNIT ( ) SI_UNIT ( $, .RADIAN. ) );
#251 = ORIENTED_EDGE ( 'NONE', *, *, #183, .F. ) ;
#252 = DIRECTION ( 'NONE',  ( 1.000000000000000000, 0.0000000000000000000, 0.0000000000000000000 ) ) ;
#253 = ORIENTED_EDGE ( 'NONE', *, *, #400, .T. ) ;
#254 = PRODUCT_DEFINITION_CONTEXT ( 'detailed design', #345, 'design' ) ;
#255 = VECTOR ( 'NONE', #106, 1000.000000000000000 ) ;
#256 = AXIS2_PLACEMENT_3D ( 'NONE', #195, #226, #43 ) ;
#257 = FACE_OUTER_BOUND ( 'NONE', #113, .T. ) ;
#258 = DIRECTION ( 'NONE',  ( -1.000000000000000000, -2.551063935260010500E-016, 0.0000000000000000000 ) ) ;
#259 = PLANE ( 'NONE',  #78 ) ;
#260 = ADVANCED_FACE ( 'NONE', ( #366 ), #158, .F. ) ;
#261 = MANIFOLD_SOLID_BREP ( 'Gewinde', #204 ) ;
#262 = AXIS2_PLACEMENT_3D ( 'NONE', #151, #238, #54 ) ;
#263 = CARTESIAN_POINT ( 'NONE',  ( 5.000000000000000900, 5.499999999999999100, 9.500000000000000000 ) ) ;
#264 = UNCERTAINTY_MEASURE_WITH_UNIT (LENGTH_MEASURE( 1.000000000000000100E-005 ), #28, 'distance_accuracy_value', 'NONE');
#265 = VERTEX_POINT ( 'NONE', #159 ) ;
#266 = DIRECTION ( 'NONE',  ( -1.000000000000000000, -2.551063935260010500E-016, 0.0000000000000000000 ) ) ;
#267 = VECTOR ( 'NONE', #358, 1000.000000000000000 ) ;
#268 = EDGE_CURVE ( 'NONE', #220, #370, #376, .T. ) ;
#269 = DIRECTION ( 'NONE',  ( -0.0000000000000000000, -1.000000000000000000, -0.0000000000000000000 ) ) ;
#270 = PRODUCT_DEFINITION_SHAPE ( 'NONE', 'NONE',  #36 ) ;
#271 = ORIENTED_EDGE ( 'NONE', *, *, #377, .F. ) ;
#272 =( LENGTH_UNIT ( ) NAMED_UNIT ( * ) SI_UNIT ( .MILLI., .METRE. ) );
#273 = FACE_BOUND ( 'NONE', #40, .T. ) ;
#274 = ORIENTED_EDGE ( 'NONE', *, *, #335, .F. ) ;
#275 =( NAMED_UNIT ( * ) PLANE_ANGLE_UNIT ( ) SI_UNIT ( $, .RADIAN. ) );
#276 = DIRECTION ( 'NONE',  ( -1.000000000000000000, -1.734723475976806600E-016, 0.0000000000000000000 ) ) ;
#277 = FACE_BOUND ( 'NONE', #318, .T. ) ;
#278 = AXIS2_PLACEMENT_3D ( 'NONE', #201, #12, #232 ) ;
#279 = DIRECTION ( 'NONE',  ( 0.0000000000000000000, 1.000000000000000000, 0.0000000000000000000 ) ) ;
#280 = CYLINDRICAL_SURFACE ( 'NONE', #346, 3.399999999999999900 ) ;
#281 = CARTESIAN_POINT ( 'NONE',  ( -4.999999999999999100, 5.499999999999998200, -9.500000000000000000 ) ) ;
#282 = ORIENTED_EDGE ( 'NONE', *, *, #186, .F. ) ;
#283 = ORIENTED_EDGE ( 'NONE', *, *, #335, .T. ) ;
#284 = CARTESIAN_POINT ( 'NONE',  ( -9.540979117872437000E-016, 5.499999999999999100, 0.0000000000000000000 ) ) ;
#285 = CARTESIAN_POINT ( 'NONE',  ( 3.399999999999999000, 5.500000000000000000, 4.163799117101000600E-016 ) ) ;
#286 = LINE ( 'NONE', #76, #52 ) ;
#287 = ORIENTED_EDGE ( 'NONE', *, *, #139, .T. ) ;
#288 = CARTESIAN_POINT ( 'NONE',  ( -8.999999999999998200, -2.326752072262518000E-015, 9.500000000000000000 ) ) ;
#289 = ADVANCED_FACE ( 'NONE', ( #213 ), #379, .T. ) ;
#290 = CARTESIAN_POINT ( 'NONE',  ( -4.999999999999999100, 5.499999999999998200, 9.500000000000000000 ) ) ;
#291 = EDGE_CURVE ( 'NONE', #69, #86, #286, .T. ) ;
#292 = DIRECTION ( 'NONE',  ( -0.0000000000000000000, -0.0000000000000000000, -1.000000000000000000 ) ) ;
#293 = CARTESIAN_POINT ( 'NONE',  ( 5.000000000000000900, 3.999999999999998200, 9.500000000000000000 ) ) ;
#294 = EDGE_CURVE ( 'NONE', #214, #307, #369, .T. ) ;
#295 = FACE_OUTER_BOUND ( 'NONE', #68, .T. ) ;
#296 = PLANE ( 'NONE',  #118 ) ;
#297 = CARTESIAN_POINT ( 'NONE',  ( -4.999999999999999100, 5.499999999999998200, 9.500000000000000000 ) ) ;
#298 = CARTESIAN_POINT ( 'NONE',  ( -4.999999999999999100, 3.999999999999997300, 9.500000000000000000 ) ) ;
#299 = ORIENTED_EDGE ( 'NONE', *, *, #361, .T. ) ;
#300 = ORIENTED_EDGE ( 'NONE', *, *, #247, .T. ) ;
#301 = STYLED_ITEM ( 'NONE', ( #51 ), #312 ) ;
#302 = VECTOR ( 'NONE', #352, 1000.000000000000000 ) ;
#303 = DIRECTION ( 'NONE',  ( 8.673617379884036500E-016, -1.000000000000000000, 0.0000000000000000000 ) ) ;
#304 = DIRECTION ( 'NONE',  ( -1.734723475976807300E-016, 1.000000000000000000, -0.0000000000000000000 ) ) ;
#305 = LINE ( 'NONE', #74, #216 ) ;
#306 = AXIS2_PLACEMENT_3D ( 'NONE', #153, #304, #44 ) ;
#307 = VERTEX_POINT ( 'NONE', #355 ) ;
#308 = ORIENTED_EDGE ( 'NONE', *, *, #294, .F. ) ;
#309 = DIRECTION ( 'NONE',  ( -8.673617379884035500E-016, 1.000000000000000000, 0.0000000000000000000 ) ) ;
#310 = VERTEX_POINT ( 'NONE', #228 ) ;
#311 =( NAMED_UNIT ( * ) SI_UNIT ( $, .STERADIAN. ) SOLID_ANGLE_UNIT ( ) );
#312 = ADVANCED_BREP_SHAPE_REPRESENTATION ( '096928', ( #261, #17 ), #233 ) ;
#313 = VECTOR ( 'NONE', #145, 1000.000000000000000 ) ;
#314 = EDGE_CURVE ( 'NONE', #220, #49, #39, .T. ) ;
#315 = DIRECTION ( 'NONE',  ( -1.224606353822377500E-016, 1.000000000000000000, 0.0000000000000000000 ) ) ;
#316 = DIRECTION ( 'NONE',  ( 1.000000000000000000, 0.0000000000000000000, 0.0000000000000000000 ) ) ;
#317 = VERTEX_POINT ( 'NONE', #109 ) ;
#318 = EDGE_LOOP ( 'NONE', ( #394, #34 ) ) ;
#319 = CARTESIAN_POINT ( 'NONE',  ( 8.999999999999998200, 4.000000000000000000, 9.500000000000000000 ) ) ;
#320 = PRESENTATION_LAYER_ASSIGNMENT (  '', '', ( #301 ) ) ;
#321 = EDGE_LOOP ( 'NONE', ( #137, #243, #251, #206 ) ) ;
#322 = FACE_OUTER_BOUND ( 'NONE', #374, .T. ) ;
#323 = CARTESIAN_POINT ( 'NONE',  ( 8.999999999999998200, 4.000000000000000000, -9.500000000000000000 ) ) ;
#324 = ADVANCED_FACE ( 'NONE', ( #273, #205 ), #176, .F. ) ;
#325 = CARTESIAN_POINT ( 'NONE',  ( 8.999999999999998200, 4.000000000000000000, -9.500000000000000000 ) ) ;
#326 = DIRECTION ( 'NONE',  ( 1.000000000000000000, 1.224606353822377500E-016, -0.0000000000000000000 ) ) ;
#327 = ORIENTED_EDGE ( 'NONE', *, *, #50, .T. ) ;
#328 = CARTESIAN_POINT ( 'NONE',  ( -4.999999999999999100, 3.999999999999997300, 9.500000000000000000 ) ) ;
#329 = DIRECTION ( 'NONE',  ( -1.000000000000000000, 0.0000000000000000000, 0.0000000000000000000 ) ) ;
#330 = DIRECTION ( 'NONE',  ( 1.734723475976807100E-016, -1.000000000000000000, 0.0000000000000000000 ) ) ;
#331 = ORIENTED_EDGE ( 'NONE', *, *, #9, .F. ) ;
#332 = LINE ( 'NONE', #325, #235 ) ;
#333 = FACE_OUTER_BOUND ( 'NONE', #321, .T. ) ;
#334 = VECTOR ( 'NONE', #336, 1000.000000000000000 ) ;
#335 = EDGE_CURVE ( 'NONE', #121, #388, #202, .T. ) ;
#336 = DIRECTION ( 'NONE',  ( -0.0000000000000000000, -1.000000000000000000, -0.0000000000000000000 ) ) ;
#337 = ORIENTED_EDGE ( 'NONE', *, *, #38, .F. ) ;
#338 = VECTOR ( 'NONE', #279, 1000.000000000000000 ) ;
#339 = MECHANICAL_DESIGN_GEOMETRIC_PRESENTATION_REPRESENTATION (  '', ( #301 ), #359 ) ;
#340 = FILL_AREA_STYLE_COLOUR ( '', #357 ) ;
#341 = VECTOR ( 'NONE', #192, 1000.000000000000000 ) ;
#342 = CARTESIAN_POINT ( 'NONE',  ( 9.000000000000001800, -1.224606353822385100E-016, 9.500000000000000000 ) ) ;
#343 = EDGE_LOOP ( 'NONE', ( #157, #236, #149, #26 ) ) ;
#344 = DIRECTION ( 'NONE',  ( -0.0000000000000000000, -0.0000000000000000000, -1.000000000000000000 ) ) ;
#345 = APPLICATION_CONTEXT ( 'automotive_design' ) ;
#346 = AXIS2_PLACEMENT_3D ( 'NONE', #110, #230, #46 ) ;
#347 = ORIENTED_EDGE ( 'NONE', *, *, #291, .T. ) ;
#348 = SHAPE_DEFINITION_REPRESENTATION ( #270, #312 ) ;
#349 = UNCERTAINTY_MEASURE_WITH_UNIT (LENGTH_MEASURE( 1.000000000000000100E-005 ), #272, 'distance_accuracy_value', 'NONE');
#350 = ADVANCED_FACE ( 'NONE', ( #362 ), #190, .F. ) ;
#351 = CARTESIAN_POINT ( 'NONE',  ( -4.999999999999999100, 3.999999999999997300, 9.500000000000000000 ) ) ;
#352 = DIRECTION ( 'NONE',  ( -1.734723475976807300E-016, 1.000000000000000000, -0.0000000000000000000 ) ) ;
#353 = LINE ( 'NONE', #380, #152 ) ;
#354 = EDGE_CURVE ( 'NONE', #370, #310, #184, .T. ) ;
#355 = CARTESIAN_POINT ( 'NONE',  ( 9.000000000000001800, -1.224606353822385100E-016, 9.500000000000000000 ) ) ;
#356 = CARTESIAN_POINT ( 'NONE',  ( 5.000000000000000900, 3.999999999999998200, 9.500000000000000000 ) ) ;
#357 = COLOUR_RGB ( '',1.000000000000000000, 1.000000000000000000, 1.000000000000000000 ) ;
#358 = DIRECTION ( 'NONE',  ( -0.0000000000000000000, -0.0000000000000000000, -1.000000000000000000 ) ) ;
#359 =( GEOMETRIC_REPRESENTATION_CONTEXT ( 3 ) GLOBAL_UNCERTAINTY_ASSIGNED_CONTEXT ( ( #264 ) ) GLOBAL_UNIT_ASSIGNED_CONTEXT ( ( #28, #250, #63 ) ) REPRESENTATION_CONTEXT ( 'NONE', 'WORKASPACE' ) );
#360 = EDGE_LOOP ( 'NONE', ( #405, #125, #271, #300 ) ) ;
#361 = EDGE_CURVE ( 'NONE', #265, #86, #15, .T. ) ;
#362 = FACE_OUTER_BOUND ( 'NONE', #360, .T. ) ;
#363 = ORIENTED_EDGE ( 'NONE', *, *, #38, .T. ) ;
#364 = FACE_OUTER_BOUND ( 'NONE', #203, .T. ) ;
#365 = AXIS2_PLACEMENT_3D ( 'NONE', #122, #185, #398 ) ;
#366 = FACE_OUTER_BOUND ( 'NONE', #56, .T. ) ;
#367 = ORIENTED_EDGE ( 'NONE', *, *, #183, .T. ) ;
#368 = ORIENTED_EDGE ( 'NONE', *, *, #150, .F. ) ;
#369 = LINE ( 'NONE', #342, #124 ) ;
#370 = VERTEX_POINT ( 'NONE', #285 ) ;
#371 = EDGE_CURVE ( 'NONE', #307, #133, #95, .T. ) ;
#372 = VECTOR ( 'NONE', #386, 1000.000000000000000 ) ;
#373 = FILL_AREA_STYLE_COLOUR ( '', #135 ) ;
#374 = EDGE_LOOP ( 'NONE', ( #408, #114, #241, #287 ) ) ;
#375 = ORIENTED_EDGE ( 'NONE', *, *, #126, .T. ) ;
#376 = LINE ( 'NONE', #212, #302 ) ;
#377 = EDGE_CURVE ( 'NONE', #389, #84, #103, .T. ) ;
#378 = PLANE ( 'NONE',  #256 ) ;
#379 = PLANE ( 'NONE',  #93 ) ;
#380 = CARTESIAN_POINT ( 'NONE',  ( -8.999999999999998200, 3.999999999999997300, 9.500000000000000000 ) ) ;
#381 = ADVANCED_FACE ( 'NONE', ( #168 ), #378, .F. ) ;
#382 = LINE ( 'NONE', #356, #128 ) ;
#383 = CARTESIAN_POINT ( 'NONE',  ( -9.540979117872437000E-016, 5.499999999999999100, 0.0000000000000000000 ) ) ;
#384 = CARTESIAN_POINT ( 'NONE',  ( 3.400000000000000400, -2.879640970121500200E-015, 4.163799117101001500E-016 ) ) ;
#385 = ORIENTED_EDGE ( 'NONE', *, *, #150, .T. ) ;
#386 = DIRECTION ( 'NONE',  ( -1.000000000000000000, -4.336808689942021200E-016, 0.0000000000000000000 ) ) ;
#387 = PRESENTATION_LAYER_ASSIGNMENT (  '', '', ( #240 ) ) ;
#388 = VERTEX_POINT ( 'NONE', #323 ) ;
#389 = VERTEX_POINT ( 'NONE', #290 ) ;
#390 = ORIENTED_EDGE ( 'NONE', *, *, #227, .F. ) ;
#391 = LINE ( 'NONE', #328, #313 ) ;
#392 = DIRECTION ( 'NONE',  ( -1.000000000000000000, -1.734723475976807100E-016, -0.0000000000000000000 ) ) ;
#393 = EDGE_CURVE ( 'NONE', #49, #310, #242, .T. ) ;
#394 = ORIENTED_EDGE ( 'NONE', *, *, #139, .F. ) ;
#395 = VERTEX_POINT ( 'NONE', #5 ) ;
#396 = VECTOR ( 'NONE', #142, 1000.000000000000000 ) ;
#397 = ORIENTED_EDGE ( 'NONE', *, *, #173, .F. ) ;
#398 = DIRECTION ( 'NONE',  ( 0.0000000000000000000, -0.0000000000000000000, -1.000000000000000000 ) ) ;
#399 = LINE ( 'NONE', #117, #334 ) ;
#400 = EDGE_CURVE ( 'NONE', #388, #265, #332, .T. ) ;
#401 = CARTESIAN_POINT ( 'NONE',  ( -8.999999999999998200, 3.999999999999997300, 9.500000000000000000 ) ) ;
#402 = SURFACE_SIDE_STYLE ('',( #85 ) ) ;
#403 = VERTEX_POINT ( 'NONE', #401 ) ;
#404 = MECHANICAL_DESIGN_GEOMETRIC_PRESENTATION_REPRESENTATION (  '', ( #240 ), #23 ) ;
#405 = ORIENTED_EDGE ( 'NONE', *, *, #173, .T. ) ;
#406 = VECTOR ( 'NONE', #138, 1000.000000000000000 ) ;
#407 = CARTESIAN_POINT ( 'NONE',  ( 5.000000000000000900, 5.499999999999999100, -9.500000000000000000 ) ) ;
#408 = ORIENTED_EDGE ( 'NONE', *, *, #268, .F. ) ;
ENDSEC;
END-ISO-10303-21;
