ISO-10303-21;
HEADER;
FILE_DESCRIPTION (( 'STEP AP214' ),
    '1' );
FILE_NAME ('096200.1500.STEP',
    '2014-09-03T07:26:40',
    ( '' ),
    ( '' ),
    'SwSTEP 2.0',
    'SolidWorks 2014',
    '' );
FILE_SCHEMA (( 'AUTOMOTIVE_DESIGN' ));
ENDSEC;

DATA;
#1 = CARTESIAN_POINT ( 'NONE',  ( -3.828191154537883300, 2.829856989348784200, 15.00000000000000000 ) ) ;
#2 = COLOUR_RGB ( '',1.000000000000000000, 1.000000000000000000, 1.000000000000000000 ) ;
#3 = ORIENTED_EDGE ( 'NONE', *, *, #225, .F. ) ;
#4 = EDGE_CURVE ( 'NONE', #306, #265, #185, .T. ) ;
#5 = DIRECTION ( 'NONE',  ( 0.0000000000000000000, 0.0000000000000000000, 1.000000000000000000 ) ) ;
#6 = FACE_OUTER_BOUND ( 'NONE', #131, .T. ) ;
#7 = LINE ( 'NONE', #182, #41 ) ;
#8 = FACE_OUTER_BOUND ( 'NONE', #304, .T. ) ;
#9 = DIRECTION ( 'NONE',  ( 0.0000000000000000000, 0.0000000000000000000, 1.000000000000000000 ) ) ;
#10 = ORIENTED_EDGE ( 'NONE', *, *, #332, .F. ) ;
#11 = DIRECTION ( 'NONE',  ( -0.0000000000000000000, -0.0000000000000000000, -1.000000000000000000 ) ) ;
#12 = EDGE_LOOP ( 'NONE', ( #200, #356, #45, #77 ) ) ;
#13 = AXIS2_PLACEMENT_3D ( 'NONE', #318, #215, #19 ) ;
#14 = DIRECTION ( 'NONE',  ( -1.000000000000000000, 0.0000000000000000000, 0.0000000000000000000 ) ) ;
#15 = CARTESIAN_POINT ( 'NONE',  ( 3.600000000000000500, -0.3999999999999990800, 0.0000000000000000000 ) ) ;
#16 = PLANE ( 'NONE',  #340 ) ;
#17 = VERTEX_POINT ( 'NONE', #168 ) ;
#18 = CARTESIAN_POINT ( 'NONE',  ( 3.966824254545079100, -0.5594991105851236900, 15.00000000000000000 ) ) ;
#19 = DIRECTION ( 'NONE',  ( 1.000000000000000000, 1.224606353822377300E-016, 0.0000000000000000000 ) ) ;
#20 = FACE_OUTER_BOUND ( 'NONE', #330, .T. ) ;
#21 = VECTOR ( 'NONE', #11, 1000.000000000000000 ) ;
#22 = SURFACE_STYLE_USAGE ( .BOTH. , #216 ) ;
#23 = AXIS2_PLACEMENT_3D ( 'NONE', #232, #5, #205 ) ;
#24 = PRODUCT_DEFINITION_SHAPE ( 'NONE', 'NONE',  #213 ) ;
#25 = ORIENTED_EDGE ( 'NONE', *, *, #225, .T. ) ;
#26 = ORIENTED_EDGE ( 'NONE', *, *, #73, .T. ) ;
#27 = CARTESIAN_POINT ( 'NONE',  ( 3.828191154537883300, 2.829856989348785000, 15.00000000000000000 ) ) ;
#28 =( NAMED_UNIT ( * ) SI_UNIT ( $, .STERADIAN. ) SOLID_ANGLE_UNIT ( ) );
#29 = PRESENTATION_STYLE_ASSIGNMENT (( #341 ) ) ;
#30 = VECTOR ( 'NONE', #369, 1000.000000000000000 ) ;
#31 = EDGE_LOOP ( 'NONE', ( #65, #26, #336, #358 ) ) ;
#32 = EDGE_CURVE ( 'NONE', #195, #306, #128, .T. ) ;
#33 = VERTEX_POINT ( 'NONE', #172 ) ;
#34 = ADVANCED_FACE ( 'NONE', ( #42 ), #192, .T. ) ;
#35 = DIRECTION ( 'NONE',  ( 0.0000000000000000000, 0.0000000000000000000, 1.000000000000000000 ) ) ;
#36 = DIRECTION ( 'NONE',  ( -1.000000000000000000, 0.0000000000000000000, 0.0000000000000000000 ) ) ;
#37 = ORIENTED_EDGE ( 'NONE', *, *, #58, .F. ) ;
#38 = DIRECTION ( 'NONE',  ( 0.0000000000000000000, 0.0000000000000000000, 1.000000000000000000 ) ) ;
#39 = DIRECTION ( 'NONE',  ( -1.000000000000000000, 0.0000000000000000000, 0.0000000000000000000 ) ) ;
#40 = CARTESIAN_POINT ( 'NONE',  ( -3.828191154537883300, 2.829856989348784200, 0.0000000000000000000 ) ) ;
#41 = VECTOR ( 'NONE', #84, 1000.000000000000000 ) ;
#42 = FACE_OUTER_BOUND ( 'NONE', #300, .T. ) ;
#43 = FILL_AREA_STYLE ('',( #75 ) ) ;
#44 = LINE ( 'NONE', #18, #30 ) ;
#45 = ORIENTED_EDGE ( 'NONE', *, *, #301, .F. ) ;
#46 = DIRECTION ( 'NONE',  ( 0.0000000000000000000, 0.0000000000000000000, 1.000000000000000000 ) ) ;
#47 = VERTEX_POINT ( 'NONE', #113 ) ;
#48 = AXIS2_PLACEMENT_3D ( 'NONE', #150, #149, #49 ) ;
#49 = DIRECTION ( 'NONE',  ( -1.000000000000000000, 0.0000000000000000000, 0.0000000000000000000 ) ) ;
#50 = VERTEX_POINT ( 'NONE', #111 ) ;
#51 = CARTESIAN_POINT ( 'NONE',  ( -3.599999999999999600, -0.3999999999999999700, 15.00000000000000000 ) ) ;
#52 = CYLINDRICAL_SURFACE ( 'NONE', #381, 0.3999999999999988600 ) ;
#53 = CARTESIAN_POINT ( 'NONE',  ( -3.599999999999999600, -0.3999999999999999700, 0.0000000000000000000 ) ) ;
#54 = DIRECTION ( 'NONE',  ( -1.000000000000000000, 0.0000000000000000000, 0.0000000000000000000 ) ) ;
#55 = ORIENTED_EDGE ( 'NONE', *, *, #99, .T. ) ;
#56 = CARTESIAN_POINT ( 'NONE',  ( -3.599999999999999600, -0.3999999999999999700, 15.00000000000000000 ) ) ;
#57 = DIRECTION ( 'NONE',  ( 1.000000000000000000, 0.0000000000000000000, -0.0000000000000000000 ) ) ;
#58 = EDGE_CURVE ( 'NONE', #306, #258, #179, .T. ) ;
#59 = VECTOR ( 'NONE', #308, 1000.000000000000000 ) ;
#60 = SHAPE_DEFINITION_REPRESENTATION ( #24, #351 ) ;
#61 =( NAMED_UNIT ( * ) PLANE_ANGLE_UNIT ( ) SI_UNIT ( $, .RADIAN. ) );
#62 = CIRCLE ( 'NONE', #329, 8.500000000000000000 ) ;
#63 = STYLED_ITEM ( 'NONE', ( #275 ), #351 ) ;
#64 = DIRECTION ( 'NONE',  ( 0.0000000000000000000, 0.0000000000000000000, 1.000000000000000000 ) ) ;
#65 = ORIENTED_EDGE ( 'NONE', *, *, #153, .T. ) ;
#66 = CARTESIAN_POINT ( 'NONE',  ( -1.138566822231292400, -4.068064088787711100, 15.00000000000000000 ) ) ;
#67 = ORIENTED_EDGE ( 'NONE', *, *, #174, .F. ) ;
#68 = CARTESIAN_POINT ( 'NONE',  ( 0.7295396947326546800, -4.200000000000000200, 15.00000000000000000 ) ) ;
#69 = ADVANCED_FACE ( 'NONE', ( #8 ), #262, .T. ) ;
#70 = LINE ( 'NONE', #291, #359 ) ;
#71 = EDGE_LOOP ( 'NONE', ( #147, #141, #80, #229 ) ) ;
#72 = AXIS2_PLACEMENT_3D ( 'NONE', #27, #166, #326 ) ;
#73 = EDGE_CURVE ( 'NONE', #47, #165, #255, .T. ) ;
#74 = LINE ( 'NONE', #209, #21 ) ;
#75 = FILL_AREA_STYLE_COLOUR ( '', #2 ) ;
#76 = LINE ( 'NONE', #159, #374 ) ;
#77 = ORIENTED_EDGE ( 'NONE', *, *, #263, .F. ) ;
#78 = EDGE_CURVE ( 'NONE', #372, #17, #328, .T. ) ;
#79 = CIRCLE ( 'NONE', #257, 0.7000000000000000700 ) ;
#80 = ORIENTED_EDGE ( 'NONE', *, *, #58, .T. ) ;
#81 = PLANE ( 'NONE',  #98 ) ;
#82 = CYLINDRICAL_SURFACE ( 'NONE', #48, 0.3999999999999988600 ) ;
#83 = FACE_OUTER_BOUND ( 'NONE', #71, .T. ) ;
#84 = DIRECTION ( 'NONE',  ( -0.0000000000000000000, -0.0000000000000000000, -1.000000000000000000 ) ) ;
#85 = DIRECTION ( 'NONE',  ( 1.000000000000000000, 0.0000000000000000000, 0.0000000000000000000 ) ) ;
#86 = PRESENTATION_LAYER_ASSIGNMENT (  '', '', ( #63 ) ) ;
#87 = DIRECTION ( 'NONE',  ( 1.000000000000000000, 0.0000000000000000000, -0.0000000000000000000 ) ) ;
#88 = VERTEX_POINT ( 'NONE', #68 ) ;
#89 = CARTESIAN_POINT ( 'NONE',  ( -3.828191154537883300, 2.829856989348784200, 15.00000000000000000 ) ) ;
#90 = DIRECTION ( 'NONE',  ( 1.000000000000000000, 0.0000000000000000000, 0.0000000000000000000 ) ) ;
#91 = FACE_OUTER_BOUND ( 'NONE', #31, .T. ) ;
#92 = CARTESIAN_POINT ( 'NONE',  ( 1.138566822231293200, -4.068064088787712900, 0.0000000000000000000 ) ) ;
#93 = CIRCLE ( 'NONE', #235, 0.6999999999999999600 ) ;
#94 = ORIENTED_EDGE ( 'NONE', *, *, #174, .T. ) ;
#95 =( NAMED_UNIT ( * ) PLANE_ANGLE_UNIT ( ) SI_UNIT ( $, .RADIAN. ) );
#96 = FACE_OUTER_BOUND ( 'NONE', #12, .T. ) ;
#97 = VECTOR ( 'NONE', #64, 1000.000000000000000 ) ;
#98 = AXIS2_PLACEMENT_3D ( 'NONE', #335, #260, #46 ) ;
#99 = EDGE_CURVE ( 'NONE', #33, #202, #315, .T. ) ;
#100 = PRODUCT ( '096200.1500', '096200.1500', '', ( #322 ) ) ;
#101 = CARTESIAN_POINT ( 'NONE',  ( 0.7295396947326546800, -3.500000000000000900, 15.00000000000000000 ) ) ;
#102 = MANIFOLD_SOLID_BREP ( 'Verrundung2', #117 ) ;
#103 = VECTOR ( 'NONE', #144, 1000.000000000000000 ) ;
#104 = DIRECTION ( 'NONE',  ( -0.0000000000000000000, -0.0000000000000000000, -1.000000000000000000 ) ) ;
#105 = ORIENTED_EDGE ( 'NONE', *, *, #246, .F. ) ;
#106 = EDGE_CURVE ( 'NONE', #258, #338, #119, .T. ) ;
#107 = DIRECTION ( 'NONE',  ( -0.0000000000000000000, -0.0000000000000000000, -1.000000000000000000 ) ) ;
#108 = ADVANCED_FACE ( 'NONE', ( #91 ), #334, .T. ) ;
#109 = LINE ( 'NONE', #187, #327 ) ;
#110 = VECTOR ( 'NONE', #104, 1000.000000000000000 ) ;
#111 = CARTESIAN_POINT ( 'NONE',  ( 0.7295396947326546800, -4.200000000000000200, 0.0000000000000000000 ) ) ;
#112 = ORIENTED_EDGE ( 'NONE', *, *, #32, .F. ) ;
#113 = CARTESIAN_POINT ( 'NONE',  ( -1.138566822231292400, -4.068064088787711100, 0.0000000000000000000 ) ) ;
#114 = EDGE_LOOP ( 'NONE', ( #210, #181, #217, #126 ) ) ;
#115 = MECHANICAL_DESIGN_GEOMETRIC_PRESENTATION_REPRESENTATION (  '', ( #63 ), #138 ) ;
#116 = CARTESIAN_POINT ( 'NONE',  ( -3.599999999999999600, 0.0000000000000000000, 15.00000000000000000 ) ) ;
#117 = CLOSED_SHELL ( 'NONE', ( #171, #140, #108, #199, #302, #34, #380, #354, #279, #254, #69 ) ) ;
#118 = PLANE ( 'NONE',  #218 ) ;
#119 = CIRCLE ( 'NONE', #310, 0.3999999999999988600 ) ;
#120 = CARTESIAN_POINT ( 'NONE',  ( 3.599999999999999600, 8.817165747521114900E-016, 15.00000000000000000 ) ) ;
#121 = AXIS2_PLACEMENT_3D ( 'NONE', #194, #247, #294 ) ;
#122 = ORIENTED_EDGE ( 'NONE', *, *, #332, .T. ) ;
#123 = CARTESIAN_POINT ( 'NONE',  ( -3.966824254545079100, -0.5594991105851211400, 15.00000000000000000 ) ) ;
#124 = ORIENTED_EDGE ( 'NONE', *, *, #317, .F. ) ;
#125 = CARTESIAN_POINT ( 'NONE',  ( -3.599999999999999600, -0.3999999999999999700, 0.0000000000000000000 ) ) ;
#126 = ORIENTED_EDGE ( 'NONE', *, *, #252, .F. ) ;
#127 = DIRECTION ( 'NONE',  ( -0.0000000000000000000, -0.0000000000000000000, -1.000000000000000000 ) ) ;
#128 = LINE ( 'NONE', #163, #103 ) ;
#129 = DIRECTION ( 'NONE',  ( -0.0000000000000000000, -0.0000000000000000000, -1.000000000000000000 ) ) ;
#130 = CIRCLE ( 'NONE', #121, 0.7000000000000000700 ) ;
#131 = EDGE_LOOP ( 'NONE', ( #292, #183, #25, #145 ) ) ;
#132 = CARTESIAN_POINT ( 'NONE',  ( 0.0000000000000000000, 0.0000000000000000000, 0.0000000000000000000 ) ) ;
#133 = EDGE_CURVE ( 'NONE', #33, #372, #74, .T. ) ;
#134 = DIRECTION ( 'NONE',  ( -1.000000000000000000, 0.0000000000000000000, 0.0000000000000000000 ) ) ;
#135 = DIRECTION ( 'NONE',  ( 1.000000000000000000, 0.0000000000000000000, 0.0000000000000000000 ) ) ;
#136 = ORIENTED_EDGE ( 'NONE', *, *, #133, .F. ) ;
#137 = CARTESIAN_POINT ( 'NONE',  ( -3.966824254545079100, -0.5594991105851211400, 0.0000000000000000000 ) ) ;
#138 =( GEOMETRIC_REPRESENTATION_CONTEXT ( 3 ) GLOBAL_UNCERTAINTY_ASSIGNED_CONTEXT ( ( #307 ) ) GLOBAL_UNIT_ASSIGNED_CONTEXT ( ( #245, #61, #273 ) ) REPRESENTATION_CONTEXT ( 'NONE', 'WORKASPACE' ) );
#139 = DIRECTION ( 'NONE',  ( -1.000000000000000000, 0.0000000000000000000, 0.0000000000000000000 ) ) ;
#140 = ADVANCED_FACE ( 'NONE', ( #83 ), #52, .T. ) ;
#141 = ORIENTED_EDGE ( 'NONE', *, *, #4, .F. ) ;
#142 = DIRECTION ( 'NONE',  ( -1.000000000000000000, 0.0000000000000000000, 0.0000000000000000000 ) ) ;
#143 = VERTEX_POINT ( 'NONE', #123 ) ;
#144 = DIRECTION ( 'NONE',  ( -1.000000000000000000, -1.224606353822377300E-016, -0.0000000000000000000 ) ) ;
#145 = ORIENTED_EDGE ( 'NONE', *, *, #246, .T. ) ;
#146 = AXIS2_PLACEMENT_3D ( 'NONE', #222, #173, #164 ) ;
#147 = ORIENTED_EDGE ( 'NONE', *, *, #352, .F. ) ;
#148 = SURFACE_STYLE_FILL_AREA ( #373 ) ;
#149 = DIRECTION ( 'NONE',  ( -0.0000000000000000000, -0.0000000000000000000, -1.000000000000000000 ) ) ;
#150 = CARTESIAN_POINT ( 'NONE',  ( -3.599999999999999600, -0.3999999999999999700, 15.00000000000000000 ) ) ;
#151 = DIRECTION ( 'NONE',  ( -0.0000000000000000000, -0.0000000000000000000, -1.000000000000000000 ) ) ;
#152 = CARTESIAN_POINT ( 'NONE',  ( 0.9500000000000007300, -4.200000000000000200, 15.00000000000000000 ) ) ;
#153 = EDGE_CURVE ( 'NONE', #220, #47, #62, .T. ) ;
#154 = EDGE_CURVE ( 'NONE', #143, #220, #7, .T. ) ;
#155 = ORIENTED_EDGE ( 'NONE', *, *, #32, .T. ) ;
#156 = DIRECTION ( 'NONE',  ( 0.0000000000000000000, 0.0000000000000000000, 1.000000000000000000 ) ) ;
#157 = DIRECTION ( 'NONE',  ( -0.0000000000000000000, -0.0000000000000000000, -1.000000000000000000 ) ) ;
#158 = CARTESIAN_POINT ( 'NONE',  ( -0.7295396947326546800, -3.500000000000000000, 15.00000000000000000 ) ) ;
#159 = CARTESIAN_POINT ( 'NONE',  ( 3.599999999999999600, 8.817165747521114900E-016, 15.00000000000000000 ) ) ;
#160 = FACE_OUTER_BOUND ( 'NONE', #379, .T. ) ;
#161 = APPLICATION_CONTEXT ( 'automotive_design' ) ;
#162 = AXIS2_PLACEMENT_3D ( 'NONE', #371, #35, #14 ) ;
#163 = CARTESIAN_POINT ( 'NONE',  ( -3.599999999999999600, 0.0000000000000000000, 15.00000000000000000 ) ) ;
#164 = DIRECTION ( 'NONE',  ( 1.000000000000000000, 0.0000000000000000000, 0.0000000000000000000 ) ) ;
#165 = VERTEX_POINT ( 'NONE', #362 ) ;
#166 = DIRECTION ( 'NONE',  ( 0.0000000000000000000, 0.0000000000000000000, 1.000000000000000000 ) ) ;
#167 = CARTESIAN_POINT ( 'NONE',  ( 3.600000000000000500, -0.3999999999999990800, 15.00000000000000000 ) ) ;
#168 = CARTESIAN_POINT ( 'NONE',  ( 3.966824254545079100, -0.5594991105851236900, 0.0000000000000000000 ) ) ;
#169 = FACE_OUTER_BOUND ( 'NONE', #114, .T. ) ;
#170 = AXIS2_PLACEMENT_3D ( 'NONE', #40, #38, #36 ) ;
#171 = ADVANCED_FACE ( 'NONE', ( #20 ), #82, .T. ) ;
#172 = CARTESIAN_POINT ( 'NONE',  ( 1.138566822231293200, -4.068064088787712900, 15.00000000000000000 ) ) ;
#173 = DIRECTION ( 'NONE',  ( 0.0000000000000000000, 0.0000000000000000000, 1.000000000000000000 ) ) ;
#174 = EDGE_CURVE ( 'NONE', #338, #220, #211, .T. ) ;
#175 = SURFACE_STYLE_FILL_AREA ( #43 ) ;
#176 = FACE_OUTER_BOUND ( 'NONE', #276, .T. ) ;
#177 = DIRECTION ( 'NONE',  ( -1.000000000000000000, -1.224606353822377300E-016, -0.0000000000000000000 ) ) ;
#178 = UNCERTAINTY_MEASURE_WITH_UNIT (LENGTH_MEASURE( 1.000000000000000100E-005 ), #189, 'distance_accuracy_value', 'NONE');
#179 = LINE ( 'NONE', #116, #110 ) ;
#180 = AXIS2_PLACEMENT_3D ( 'NONE', #345, #157, #39 ) ;
#181 = ORIENTED_EDGE ( 'NONE', *, *, #133, .T. ) ;
#182 = CARTESIAN_POINT ( 'NONE',  ( -3.966824254545079100, -0.5594991105851211400, 15.00000000000000000 ) ) ;
#183 = ORIENTED_EDGE ( 'NONE', *, *, #263, .T. ) ;
#184 = SURFACE_SIDE_STYLE ('',( #175 ) ) ;
#185 = CIRCLE ( 'NONE', #146, 0.3999999999999988600 ) ;
#186 = CARTESIAN_POINT ( 'NONE',  ( -3.599999999999999600, -0.3999999999999999700, 15.00000000000000000 ) ) ;
#187 = CARTESIAN_POINT ( 'NONE',  ( 0.7295396947326546800, -4.200000000000000200, 15.00000000000000000 ) ) ;
#188 = DIRECTION ( 'NONE',  ( 1.000000000000000000, 0.0000000000000000000, 0.0000000000000000000 ) ) ;
#189 =( LENGTH_UNIT ( ) NAMED_UNIT ( * ) SI_UNIT ( .MILLI., .METRE. ) );
#190 = AXIS2_PLACEMENT_3D ( 'NONE', #1, #248, #134 ) ;
#191 = FILL_AREA_STYLE_COLOUR ( '', #337 ) ;
#192 = CYLINDRICAL_SURFACE ( 'NONE', #203, 0.3999999999999988600 ) ;
#193 = EDGE_LOOP ( 'NONE', ( #226, #37, #112, #228 ) ) ;
#194 = CARTESIAN_POINT ( 'NONE',  ( 0.7295396947326546800, -3.500000000000000900, 0.0000000000000000000 ) ) ;
#195 = VERTEX_POINT ( 'NONE', #120 ) ;
#196 = AXIS2_PLACEMENT_3D ( 'NONE', #132, #298, #135 ) ;
#197 = EDGE_CURVE ( 'NONE', #274, #258, #365, .T. ) ;
#198 = DIRECTION ( 'NONE',  ( -0.0000000000000000000, -0.0000000000000000000, -1.000000000000000000 ) ) ;
#199 = ADVANCED_FACE ( 'NONE', ( #6 ), #81, .F. ) ;
#200 = ORIENTED_EDGE ( 'NONE', *, *, #368, .F. ) ;
#201 = AXIS2_PLACEMENT_3D ( 'NONE', #15, #238, #54 ) ;
#202 = VERTEX_POINT ( 'NONE', #360 ) ;
#203 = AXIS2_PLACEMENT_3D ( 'NONE', #167, #198, #142 ) ;
#204 = EDGE_CURVE ( 'NONE', #143, #165, #236, .T. ) ;
#205 = DIRECTION ( 'NONE',  ( 1.000000000000000000, 0.0000000000000000000, 0.0000000000000000000 ) ) ;
#206 = VERTEX_POINT ( 'NONE', #319 ) ;
#207 = VECTOR ( 'NONE', #375, 1000.000000000000000 ) ;
#208 = DIRECTION ( 'NONE',  ( 1.000000000000000000, 0.0000000000000000000, 0.0000000000000000000 ) ) ;
#209 = CARTESIAN_POINT ( 'NONE',  ( 1.138566822231293200, -4.068064088787712900, 15.00000000000000000 ) ) ;
#210 = ORIENTED_EDGE ( 'NONE', *, *, #99, .F. ) ;
#211 = CIRCLE ( 'NONE', #23, 0.3999999999999988600 ) ;
#212 =( NAMED_UNIT ( * ) PLANE_ANGLE_UNIT ( ) SI_UNIT ( $, .RADIAN. ) );
#213 = PRODUCT_DEFINITION ( 'UNKNOWN', '', #227, #256 ) ;
#214 = EDGE_CURVE ( 'NONE', #372, #50, #130, .T. ) ;
#215 = DIRECTION ( 'NONE',  ( 1.224606353822377300E-016, -1.000000000000000000, 0.0000000000000000000 ) ) ;
#216 = SURFACE_SIDE_STYLE ('',( #148 ) ) ;
#217 = ORIENTED_EDGE ( 'NONE', *, *, #78, .T. ) ;
#218 = AXIS2_PLACEMENT_3D ( 'NONE', #53, #268, #87 ) ;
#219 = ORIENTED_EDGE ( 'NONE', *, *, #270, .T. ) ;
#220 = VERTEX_POINT ( 'NONE', #137 ) ;
#221 = CYLINDRICAL_SURFACE ( 'NONE', #180, 0.7000000000000000700 ) ;
#222 = CARTESIAN_POINT ( 'NONE',  ( -3.599999999999999600, -0.3999999999999999700, 15.00000000000000000 ) ) ;
#223 = AXIS2_PLACEMENT_3D ( 'NONE', #101, #107, #139 ) ;
#224 = VERTEX_POINT ( 'NONE', #350 ) ;
#225 = EDGE_CURVE ( 'NONE', #206, #50, #355, .T. ) ;
#226 = ORIENTED_EDGE ( 'NONE', *, *, #197, .T. ) ;
#227 = PRODUCT_DEFINITION_FORMATION_WITH_SPECIFIED_SOURCE ( 'ANY', '', #100, .NOT_KNOWN. ) ;
#228 = ORIENTED_EDGE ( 'NONE', *, *, #230, .T. ) ;
#229 = ORIENTED_EDGE ( 'NONE', *, *, #106, .T. ) ;
#230 = EDGE_CURVE ( 'NONE', #195, #274, #76, .T. ) ;
#231 = CYLINDRICAL_SURFACE ( 'NONE', #288, 8.500000000000000000 ) ;
#232 = CARTESIAN_POINT ( 'NONE',  ( -3.599999999999999600, -0.3999999999999999700, 0.0000000000000000000 ) ) ;
#233 = ORIENTED_EDGE ( 'NONE', *, *, #214, .F. ) ;
#234 = CARTESIAN_POINT ( 'NONE',  ( 3.828191154537883300, 2.829856989348785000, 0.0000000000000000000 ) ) ;
#235 = AXIS2_PLACEMENT_3D ( 'NONE', #290, #129, #314 ) ;
#236 = CIRCLE ( 'NONE', #72, 8.500000000000000000 ) ;
#237 = ORIENTED_EDGE ( 'NONE', *, *, #270, .F. ) ;
#238 = DIRECTION ( 'NONE',  ( 0.0000000000000000000, 0.0000000000000000000, 1.000000000000000000 ) ) ;
#239 = ORIENTED_EDGE ( 'NONE', *, *, #204, .T. ) ;
#240 = CARTESIAN_POINT ( 'NONE',  ( -3.999999999999998200, -0.3999999999999999700, 0.0000000000000000000 ) ) ;
#241 = DIRECTION ( 'NONE',  ( 0.0000000000000000000, 0.0000000000000000000, 1.000000000000000000 ) ) ;
#242 = CIRCLE ( 'NONE', #325, 0.6999999999999999600 ) ;
#243 = STYLED_ITEM ( 'NONE', ( #29 ), #102 ) ;
#244 = UNCERTAINTY_MEASURE_WITH_UNIT (LENGTH_MEASURE( 1.000000000000000100E-005 ), #272, 'distance_accuracy_value', 'NONE');
#245 =( LENGTH_UNIT ( ) NAMED_UNIT ( * ) SI_UNIT ( .MILLI., .METRE. ) );
#246 = EDGE_CURVE ( 'NONE', #50, #88, #109, .T. ) ;
#247 = DIRECTION ( 'NONE',  ( -0.0000000000000000000, -0.0000000000000000000, -1.000000000000000000 ) ) ;
#248 = DIRECTION ( 'NONE',  ( 0.0000000000000000000, 0.0000000000000000000, 1.000000000000000000 ) ) ;
#249 = ORIENTED_EDGE ( 'NONE', *, *, #283, .F. ) ;
#250 = PRODUCT_RELATED_PRODUCT_CATEGORY ( 'part', '', ( #100 ) ) ;
#251 = ORIENTED_EDGE ( 'NONE', *, *, #78, .F. ) ;
#252 = EDGE_CURVE ( 'NONE', #202, #17, #44, .T. ) ;
#253 = CIRCLE ( 'NONE', #201, 0.3999999999999988600 ) ;
#254 = ADVANCED_FACE ( 'NONE', ( #96 ), #221, .T. ) ;
#255 = LINE ( 'NONE', #66, #97 ) ;
#256 = PRODUCT_DEFINITION_CONTEXT ( 'detailed design', #161, 'design' ) ;
#257 = AXIS2_PLACEMENT_3D ( 'NONE', #316, #156, #344 ) ;
#258 = VERTEX_POINT ( 'NONE', #333 ) ;
#259 = CARTESIAN_POINT ( 'NONE',  ( -3.999999999999998200, -0.3999999999999999700, 15.00000000000000000 ) ) ;
#260 = DIRECTION ( 'NONE',  ( 0.0000000000000000000, 1.000000000000000000, -0.0000000000000000000 ) ) ;
#261 = PRESENTATION_LAYER_ASSIGNMENT (  '', '', ( #243 ) ) ;
#262 = CYLINDRICAL_SURFACE ( 'NONE', #223, 0.6999999999999999600 ) ;
#263 = EDGE_CURVE ( 'NONE', #224, #206, #299, .T. ) ;
#264 = CARTESIAN_POINT ( 'NONE',  ( -3.599999999999999600, 0.0000000000000000000, 0.0000000000000000000 ) ) ;
#265 = VERTEX_POINT ( 'NONE', #259 ) ;
#266 = ORIENTED_EDGE ( 'NONE', *, *, #153, .F. ) ;
#267 = DIRECTION ( 'NONE',  ( -1.000000000000000000, 0.0000000000000000000, 0.0000000000000000000 ) ) ;
#268 = DIRECTION ( 'NONE',  ( 0.0000000000000000000, 0.0000000000000000000, 1.000000000000000000 ) ) ;
#269 = DIRECTION ( 'NONE',  ( 0.0000000000000000000, 0.0000000000000000000, 1.000000000000000000 ) ) ;
#270 = EDGE_CURVE ( 'NONE', #202, #195, #323, .T. ) ;
#271 = DIRECTION ( 'NONE',  ( -0.0000000000000000000, -0.0000000000000000000, -1.000000000000000000 ) ) ;
#272 =( LENGTH_UNIT ( ) NAMED_UNIT ( * ) SI_UNIT ( .MILLI., .METRE. ) );
#273 =( NAMED_UNIT ( * ) SI_UNIT ( $, .STERADIAN. ) SOLID_ANGLE_UNIT ( ) );
#274 = VERTEX_POINT ( 'NONE', #284 ) ;
#275 = PRESENTATION_STYLE_ASSIGNMENT (( #22 ) ) ;
#276 = EDGE_LOOP ( 'NONE', ( #3, #296, #266, #67, #287, #324, #249, #251, #353 ) ) ;
#277 = AXIS2_PLACEMENT_3D ( 'NONE', #56, #269, #90 ) ;
#278 = CARTESIAN_POINT ( 'NONE',  ( 0.9500000000000007300, -4.200000000000000200, 0.0000000000000000000 ) ) ;
#279 = ADVANCED_FACE ( 'NONE', ( #176 ), #118, .F. ) ;
#280 = MECHANICAL_DESIGN_GEOMETRIC_PRESENTATION_REPRESENTATION (  '', ( #243 ), #297 ) ;
#281 = EDGE_CURVE ( 'NONE', #224, #88, #378, .T. ) ;
#282 = ORIENTED_EDGE ( 'NONE', *, *, #4, .T. ) ;
#283 = EDGE_CURVE ( 'NONE', #17, #274, #253, .T. ) ;
#284 = CARTESIAN_POINT ( 'NONE',  ( 3.599999999999999600, 8.817165747521114900E-016, 0.0000000000000000000 ) ) ;
#285 = ORIENTED_EDGE ( 'NONE', *, *, #283, .T. ) ;
#286 = ORIENTED_EDGE ( 'NONE', *, *, #281, .T. ) ;
#287 = ORIENTED_EDGE ( 'NONE', *, *, #106, .F. ) ;
#288 = AXIS2_PLACEMENT_3D ( 'NONE', #89, #127, #366 ) ;
#289 = DIRECTION ( 'NONE',  ( 0.0000000000000000000, 0.0000000000000000000, 1.000000000000000000 ) ) ;
#290 = CARTESIAN_POINT ( 'NONE',  ( -0.7295396947326546800, -3.500000000000000000, 0.0000000000000000000 ) ) ;
#291 = CARTESIAN_POINT ( 'NONE',  ( -3.999999999999998200, -0.3999999999999999700, 15.00000000000000000 ) ) ;
#292 = ORIENTED_EDGE ( 'NONE', *, *, #281, .F. ) ;
#293 = PLANE ( 'NONE',  #13 ) ;
#294 = DIRECTION ( 'NONE',  ( 1.000000000000000000, -6.195440985631453300E-016, 0.0000000000000000000 ) ) ;
#295 =( NAMED_UNIT ( * ) SI_UNIT ( $, .STERADIAN. ) SOLID_ANGLE_UNIT ( ) );
#296 = ORIENTED_EDGE ( 'NONE', *, *, #301, .T. ) ;
#297 =( GEOMETRIC_REPRESENTATION_CONTEXT ( 3 ) GLOBAL_UNCERTAINTY_ASSIGNED_CONTEXT ( ( #178 ) ) GLOBAL_UNIT_ASSIGNED_CONTEXT ( ( #189, #212, #28 ) ) REPRESENTATION_CONTEXT ( 'NONE', 'WORKASPACE' ) );
#298 = DIRECTION ( 'NONE',  ( 0.0000000000000000000, 0.0000000000000000000, 1.000000000000000000 ) ) ;
#299 = LINE ( 'NONE', #357, #59 ) ;
#300 = EDGE_LOOP ( 'NONE', ( #285, #312, #237, #377 ) ) ;
#301 = EDGE_CURVE ( 'NONE', #206, #47, #93, .T. ) ;
#302 = ADVANCED_FACE ( 'NONE', ( #169 ), #231, .T. ) ;
#303 = CIRCLE ( 'NONE', #277, 0.3999999999999988600 ) ;
#304 = EDGE_LOOP ( 'NONE', ( #10, #105, #233, #136 ) ) ;
#305 = VECTOR ( 'NONE', #177, 1000.000000000000000 ) ;
#306 = VERTEX_POINT ( 'NONE', #343 ) ;
#307 = UNCERTAINTY_MEASURE_WITH_UNIT (LENGTH_MEASURE( 1.000000000000000100E-005 ), #245, 'distance_accuracy_value', 'NONE');
#308 = DIRECTION ( 'NONE',  ( 0.0000000000000000000, 0.0000000000000000000, -1.000000000000000000 ) ) ;
#309 = VECTOR ( 'NONE', #342, 1000.000000000000000 ) ;
#310 = AXIS2_PLACEMENT_3D ( 'NONE', #125, #289, #85 ) ;
#311 = CARTESIAN_POINT ( 'NONE',  ( 3.828191154537883300, 2.829856989348785000, 15.00000000000000000 ) ) ;
#312 = ORIENTED_EDGE ( 'NONE', *, *, #230, .F. ) ;
#313 = ORIENTED_EDGE ( 'NONE', *, *, #352, .T. ) ;
#314 = DIRECTION ( 'NONE',  ( 1.000000000000000000, 0.0000000000000000000, 0.0000000000000000000 ) ) ;
#315 = CIRCLE ( 'NONE', #190, 8.500000000000000000 ) ;
#316 = CARTESIAN_POINT ( 'NONE',  ( 0.7295396947326546800, -3.500000000000000900, 15.00000000000000000 ) ) ;
#317 = EDGE_CURVE ( 'NONE', #265, #143, #303, .T. ) ;
#318 = CARTESIAN_POINT ( 'NONE',  ( -3.599999999999999600, 0.0000000000000000000, 15.00000000000000000 ) ) ;
#319 = CARTESIAN_POINT ( 'NONE',  ( -0.7295396947326546800, -4.200000000000000200, 0.0000000000000000000 ) ) ;
#320 = DIRECTION ( 'NONE',  ( -0.0000000000000000000, -0.0000000000000000000, 1.000000000000000000 ) ) ;
#321 = APPLICATION_PROTOCOL_DEFINITION ( 'draft international standard', 'automotive_design', 1998, #347 ) ;
#322 = PRODUCT_CONTEXT ( 'NONE', #347, 'mechanical' ) ;
#323 = CIRCLE ( 'NONE', #162, 0.3999999999999988600 ) ;
#324 = ORIENTED_EDGE ( 'NONE', *, *, #197, .F. ) ;
#325 = AXIS2_PLACEMENT_3D ( 'NONE', #158, #346, #188 ) ;
#326 = DIRECTION ( 'NONE',  ( 1.000000000000000000, 0.0000000000000000000, 0.0000000000000000000 ) ) ;
#327 = VECTOR ( 'NONE', #320, 1000.000000000000000 ) ;
#328 = CIRCLE ( 'NONE', #170, 8.500000000000000000 ) ;
#329 = AXIS2_PLACEMENT_3D ( 'NONE', #234, #9, #208 ) ;
#330 = EDGE_LOOP ( 'NONE', ( #124, #313, #94, #331 ) ) ;
#331 = ORIENTED_EDGE ( 'NONE', *, *, #154, .F. ) ;
#332 = EDGE_CURVE ( 'NONE', #88, #33, #79, .T. ) ;
#333 = CARTESIAN_POINT ( 'NONE',  ( -3.599999999999999600, 0.0000000000000000000, 0.0000000000000000000 ) ) ;
#334 = CYLINDRICAL_SURFACE ( 'NONE', #361, 8.500000000000000000 ) ;
#335 = CARTESIAN_POINT ( 'NONE',  ( 0.9500000000000007300, -4.200000000000000200, 15.00000000000000000 ) ) ;
#336 = ORIENTED_EDGE ( 'NONE', *, *, #204, .F. ) ;
#337 = COLOUR_RGB ( '',1.000000000000000000, 1.000000000000000000, 1.000000000000000000 ) ;
#338 = VERTEX_POINT ( 'NONE', #240 ) ;
#339 = DIRECTION ( 'NONE',  ( -0.0000000000000000000, -0.0000000000000000000, -1.000000000000000000 ) ) ;
#340 = AXIS2_PLACEMENT_3D ( 'NONE', #186, #241, #57 ) ;
#341 = SURFACE_STYLE_USAGE ( .BOTH. , #184 ) ;
#342 = DIRECTION ( 'NONE',  ( 1.000000000000000000, -0.0000000000000000000, -0.0000000000000000000 ) ) ;
#343 = CARTESIAN_POINT ( 'NONE',  ( -3.599999999999999600, 0.0000000000000000000, 15.00000000000000000 ) ) ;
#344 = DIRECTION ( 'NONE',  ( 1.000000000000000000, 0.0000000000000000000, 0.0000000000000000000 ) ) ;
#345 = CARTESIAN_POINT ( 'NONE',  ( -0.7295396947326546800, -3.500000000000000000, 15.00000000000000000 ) ) ;
#346 = DIRECTION ( 'NONE',  ( 0.0000000000000000000, 0.0000000000000000000, 1.000000000000000000 ) ) ;
#347 = APPLICATION_CONTEXT ( 'automotive_design' ) ;
#348 = ORIENTED_EDGE ( 'NONE', *, *, #317, .T. ) ;
#349 = APPLICATION_PROTOCOL_DEFINITION ( 'draft international standard', 'automotive_design', 1998, #161 ) ;
#350 = CARTESIAN_POINT ( 'NONE',  ( -0.7295396947326546800, -4.200000000000000200, 15.00000000000000000 ) ) ;
#351 = ADVANCED_BREP_SHAPE_REPRESENTATION ( '096200.1500', ( #102, #196 ), #376 ) ;
#352 = EDGE_CURVE ( 'NONE', #265, #338, #70, .T. ) ;
#353 = ORIENTED_EDGE ( 'NONE', *, *, #214, .T. ) ;
#354 = ADVANCED_FACE ( 'NONE', ( #160 ), #16, .T. ) ;
#355 = LINE ( 'NONE', #278, #207 ) ;
#356 = ORIENTED_EDGE ( 'NONE', *, *, #73, .F. ) ;
#357 = CARTESIAN_POINT ( 'NONE',  ( -0.7295396947326546800, -4.200000000000000200, 15.00000000000000000 ) ) ;
#358 = ORIENTED_EDGE ( 'NONE', *, *, #154, .T. ) ;
#359 = VECTOR ( 'NONE', #367, 1000.000000000000000 ) ;
#360 = CARTESIAN_POINT ( 'NONE',  ( 3.966824254545079100, -0.5594991105851236900, 15.00000000000000000 ) ) ;
#361 = AXIS2_PLACEMENT_3D ( 'NONE', #311, #151, #267 ) ;
#362 = CARTESIAN_POINT ( 'NONE',  ( -1.138566822231292400, -4.068064088787711100, 15.00000000000000000 ) ) ;
#363 = ORIENTED_EDGE ( 'NONE', *, *, #368, .T. ) ;
#364 = DIRECTION ( 'NONE',  ( -1.000000000000000000, 0.0000000000000000000, 0.0000000000000000000 ) ) ;
#365 = LINE ( 'NONE', #264, #305 ) ;
#366 = DIRECTION ( 'NONE',  ( -1.000000000000000000, 0.0000000000000000000, 0.0000000000000000000 ) ) ;
#367 = DIRECTION ( 'NONE',  ( -0.0000000000000000000, -0.0000000000000000000, -1.000000000000000000 ) ) ;
#368 = EDGE_CURVE ( 'NONE', #165, #224, #242, .T. ) ;
#369 = DIRECTION ( 'NONE',  ( -0.0000000000000000000, -0.0000000000000000000, -1.000000000000000000 ) ) ;
#370 = FACE_OUTER_BOUND ( 'NONE', #193, .T. ) ;
#371 = CARTESIAN_POINT ( 'NONE',  ( 3.600000000000000500, -0.3999999999999990800, 15.00000000000000000 ) ) ;
#372 = VERTEX_POINT ( 'NONE', #92 ) ;
#373 = FILL_AREA_STYLE ('',( #191 ) ) ;
#374 = VECTOR ( 'NONE', #271, 1000.000000000000000 ) ;
#375 = DIRECTION ( 'NONE',  ( 1.000000000000000000, -0.0000000000000000000, -0.0000000000000000000 ) ) ;
#376 =( GEOMETRIC_REPRESENTATION_CONTEXT ( 3 ) GLOBAL_UNCERTAINTY_ASSIGNED_CONTEXT ( ( #244 ) ) GLOBAL_UNIT_ASSIGNED_CONTEXT ( ( #272, #95, #295 ) ) REPRESENTATION_CONTEXT ( 'NONE', 'WORKASPACE' ) );
#377 = ORIENTED_EDGE ( 'NONE', *, *, #252, .T. ) ;
#378 = LINE ( 'NONE', #152, #309 ) ;
#379 = EDGE_LOOP ( 'NONE', ( #239, #363, #286, #122, #55, #219, #155, #282, #348 ) ) ;
#380 = ADVANCED_FACE ( 'NONE', ( #370 ), #293, .F. ) ;
#381 = AXIS2_PLACEMENT_3D ( 'NONE', #51, #339, #364 ) ;
ENDSEC;
END-ISO-10303-21;
