ISO-10303-21;
HEADER;
FILE_DESCRIPTION (( 'STEP AP214' ),
    '1' );
FILE_NAME ('092013e500.STEP',
    '2013-01-25T07:03:30',
    ( '' ),
    ( '' ),
    'SwSTEP 2.0',
    'SolidWorks 2012',
    '' );
FILE_SCHEMA (( 'AUTOMOTIVE_DESIGN' ));
ENDSEC;

DATA;
#1 = UNCERTAINTY_MEASURE_WITH_UNIT (LENGTH_MEASURE( 1.000000000000000100E-005 ), #49, 'distance_accuracy_value', 'NONE');
#2 = ADVANCED_BREP_SHAPE_REPRESENTATION ( '092013e500', ( #4, #153 ), #123 ) ;
#3 = UNCERTAINTY_MEASURE_WITH_UNIT (LENGTH_MEASURE( 1.000000000000000100E-005 ), #19, 'distance_accuracy_value', 'NONE');
#4 = MANIFOLD_SOLID_BREP ( 'Linear austragen1', #169 ) ;
#5 = UNCERTAINTY_MEASURE_WITH_UNIT (LENGTH_MEASURE( 1.000000000000000100E-005 ), #9, 'distance_accuracy_value', 'NONE');
#6 = PRODUCT_DEFINITION_SHAPE ( 'NONE', 'NONE',  #151 ) ;
#7 = PRODUCT_DEFINITION_CONTEXT ( 'detailed design', #79, 'design' ) ;
#8 =( NAMED_UNIT ( * ) PLANE_ANGLE_UNIT ( ) SI_UNIT ( $, .RADIAN. ) );
#9 =( LENGTH_UNIT ( ) NAMED_UNIT ( * ) SI_UNIT ( .MILLI., .METRE. ) );
#10 = SURFACE_STYLE_USAGE ( .BOTH. , #11 ) ;
#11 = SURFACE_SIDE_STYLE ('',( #96 ) ) ;
#12 = FILL_AREA_STYLE ('',( #21 ) ) ;
#13 = APPLICATION_CONTEXT ( 'automotive_design' ) ;
#14 = APPLICATION_PROTOCOL_DEFINITION ( 'draft international standard', 'automotive_design', 1998, #13 ) ;
#15 =( NAMED_UNIT ( * ) SI_UNIT ( $, .STERADIAN. ) SOLID_ANGLE_UNIT ( ) );
#16 = CARTESIAN_POINT ( 'NONE',  ( 0.0000000000000000000, 0.0000000000000000000, 185.0000000000000000 ) ) ;
#17 =( NAMED_UNIT ( * ) SI_UNIT ( $, .STERADIAN. ) SOLID_ANGLE_UNIT ( ) );
#18 =( NAMED_UNIT ( * ) PLANE_ANGLE_UNIT ( ) SI_UNIT ( $, .RADIAN. ) );
#19 =( LENGTH_UNIT ( ) NAMED_UNIT ( * ) SI_UNIT ( .MILLI., .METRE. ) );
#20 = CARTESIAN_POINT ( 'NONE',  ( 0.0000000000000000000, 0.0000000000000000000, 0.0000000000000000000 ) ) ;
#21 = FILL_AREA_STYLE_COLOUR ( '', #97 ) ;
#22 = DIRECTION ( 'NONE',  ( -0.0000000000000000000, -0.0000000000000000000, -1.000000000000000000 ) ) ;
#23 = CARTESIAN_POINT ( 'NONE',  ( 0.0000000000000000000, 0.0000000000000000000, 185.0000000000000000 ) ) ;
#24 = DIRECTION ( 'NONE',  ( -1.000000000000000000, 0.0000000000000000000, 0.0000000000000000000 ) ) ;
#25 =( NAMED_UNIT ( * ) PLANE_ANGLE_UNIT ( ) SI_UNIT ( $, .RADIAN. ) );
#26 = CARTESIAN_POINT ( 'NONE',  ( -13.99999999999999800, 0.0000000000000000000, 185.0000000000000000 ) ) ;
#27 = DIRECTION ( 'NONE',  ( 1.000000000000000000, 0.0000000000000000000, 0.0000000000000000000 ) ) ;
#28 = DIRECTION ( 'NONE',  ( -0.0000000000000000000, -0.0000000000000000000, -1.000000000000000000 ) ) ;
#29 = CARTESIAN_POINT ( 'NONE',  ( -13.99999999999999800, 0.0000000000000000000, -185.0000000000000000 ) ) ;
#30 = CARTESIAN_POINT ( 'NONE',  ( 15.00000000000000000, 1.836970198721029600E-015, -185.0000000000000000 ) ) ;
#31 = CARTESIAN_POINT ( 'NONE',  ( 13.99999999999999800, 1.714505518806294400E-015, -185.0000000000000000 ) ) ;
#32 = DIRECTION ( 'NONE',  ( -1.000000000000000000, 0.0000000000000000000, 0.0000000000000000000 ) ) ;
#33 = CARTESIAN_POINT ( 'NONE',  ( 13.99999999999999800, 1.714505518806294400E-015, 185.0000000000000000 ) ) ;
#34 = DIRECTION ( 'NONE',  ( -0.0000000000000000000, -0.0000000000000000000, -1.000000000000000000 ) ) ;
#35 = CARTESIAN_POINT ( 'NONE',  ( -15.00000000000000000, 0.0000000000000000000, -185.0000000000000000 ) ) ;
#36 = CARTESIAN_POINT ( 'NONE',  ( 13.99999999999999800, 1.714505518806294400E-015, 185.0000000000000000 ) ) ;
#37 = DIRECTION ( 'NONE',  ( 1.000000000000000000, 0.0000000000000000000, 0.0000000000000000000 ) ) ;
#38 = DIRECTION ( 'NONE',  ( 0.0000000000000000000, 0.0000000000000000000, 1.000000000000000000 ) ) ;
#39 = CARTESIAN_POINT ( 'NONE',  ( 0.0000000000000000000, 0.0000000000000000000, 185.0000000000000000 ) ) ;
#40 = CARTESIAN_POINT ( 'NONE',  ( 0.0000000000000000000, 0.0000000000000000000, 185.0000000000000000 ) ) ;
#41 = CARTESIAN_POINT ( 'NONE',  ( 15.00000000000000000, 1.836970198721029600E-015, 185.0000000000000000 ) ) ;
#42 = DIRECTION ( 'NONE',  ( 1.000000000000000000, 0.0000000000000000000, -0.0000000000000000000 ) ) ;
#43 = DIRECTION ( 'NONE',  ( 0.0000000000000000000, 0.0000000000000000000, 1.000000000000000000 ) ) ;
#44 = PRODUCT_CONTEXT ( 'NONE', #13, 'mechanical' ) ;
#45 = PLANE ( 'NONE',  #138 ) ;
#46 = CARTESIAN_POINT ( 'NONE',  ( 0.0000000000000000000, 0.0000000000000000000, 185.0000000000000000 ) ) ;
#47 =( NAMED_UNIT ( * ) SI_UNIT ( $, .STERADIAN. ) SOLID_ANGLE_UNIT ( ) );
#48 = CARTESIAN_POINT ( 'NONE',  ( -15.00000000000000000, 0.0000000000000000000, 185.0000000000000000 ) ) ;
#49 =( LENGTH_UNIT ( ) NAMED_UNIT ( * ) SI_UNIT ( .MILLI., .METRE. ) );
#50 = DIRECTION ( 'NONE',  ( 1.000000000000000000, 0.0000000000000000000, 0.0000000000000000000 ) ) ;
#51 = DIRECTION ( 'NONE',  ( 0.0000000000000000000, 0.0000000000000000000, 1.000000000000000000 ) ) ;
#52 = CARTESIAN_POINT ( 'NONE',  ( 0.0000000000000000000, 0.0000000000000000000, -185.0000000000000000 ) ) ;
#53 = DIRECTION ( 'NONE',  ( -1.000000000000000000, 0.0000000000000000000, 0.0000000000000000000 ) ) ;
#54 = CARTESIAN_POINT ( 'NONE',  ( 15.00000000000000000, 1.836970198721029600E-015, 185.0000000000000000 ) ) ;
#55 = SURFACE_STYLE_USAGE ( .BOTH. , #65 ) ;
#56 = DIRECTION ( 'NONE',  ( -0.0000000000000000000, -0.0000000000000000000, -1.000000000000000000 ) ) ;
#57 = DIRECTION ( 'NONE',  ( 1.000000000000000000, 0.0000000000000000000, 0.0000000000000000000 ) ) ;
#58 = DIRECTION ( 'NONE',  ( -1.000000000000000000, 0.0000000000000000000, 0.0000000000000000000 ) ) ;
#59 = DIRECTION ( 'NONE',  ( 0.0000000000000000000, 0.0000000000000000000, 1.000000000000000000 ) ) ;
#60 = CARTESIAN_POINT ( 'NONE',  ( 0.0000000000000000000, 0.0000000000000000000, 185.0000000000000000 ) ) ;
#61 = DIRECTION ( 'NONE',  ( 1.000000000000000000, 0.0000000000000000000, 0.0000000000000000000 ) ) ;
#62 = DIRECTION ( 'NONE',  ( 0.0000000000000000000, 0.0000000000000000000, 1.000000000000000000 ) ) ;
#63 = FILL_AREA_STYLE ('',( #64 ) ) ;
#64 = FILL_AREA_STYLE_COLOUR ( '', #199 ) ;
#65 = SURFACE_SIDE_STYLE ('',( #167 ) ) ;
#66 = CARTESIAN_POINT ( 'NONE',  ( 0.0000000000000000000, 0.0000000000000000000, -185.0000000000000000 ) ) ;
#67 = CARTESIAN_POINT ( 'NONE',  ( 0.0000000000000000000, 0.0000000000000000000, 185.0000000000000000 ) ) ;
#68 = CARTESIAN_POINT ( 'NONE',  ( -15.00000000000000000, 0.0000000000000000000, 185.0000000000000000 ) ) ;
#69 = DIRECTION ( 'NONE',  ( -0.0000000000000000000, -0.0000000000000000000, -1.000000000000000000 ) ) ;
#70 = DIRECTION ( 'NONE',  ( 1.000000000000000000, 0.0000000000000000000, 0.0000000000000000000 ) ) ;
#71 = DIRECTION ( 'NONE',  ( 0.0000000000000000000, 0.0000000000000000000, 1.000000000000000000 ) ) ;
#72 = CARTESIAN_POINT ( 'NONE',  ( 0.0000000000000000000, 0.0000000000000000000, -185.0000000000000000 ) ) ;
#73 = DIRECTION ( 'NONE',  ( -0.0000000000000000000, -0.0000000000000000000, -1.000000000000000000 ) ) ;
#74 = DIRECTION ( 'NONE',  ( 1.000000000000000000, 0.0000000000000000000, 0.0000000000000000000 ) ) ;
#75 = DIRECTION ( 'NONE',  ( 0.0000000000000000000, 0.0000000000000000000, 1.000000000000000000 ) ) ;
#76 = CARTESIAN_POINT ( 'NONE',  ( 0.0000000000000000000, 0.0000000000000000000, -185.0000000000000000 ) ) ;
#77 = DIRECTION ( 'NONE',  ( 1.000000000000000000, 0.0000000000000000000, 0.0000000000000000000 ) ) ;
#78 = DIRECTION ( 'NONE',  ( 0.0000000000000000000, 0.0000000000000000000, 1.000000000000000000 ) ) ;
#79 = APPLICATION_CONTEXT ( 'automotive_design' ) ;
#80 = CARTESIAN_POINT ( 'NONE',  ( 0.0000000000000000000, 0.0000000000000000000, 185.0000000000000000 ) ) ;
#81 = DIRECTION ( 'NONE',  ( 1.000000000000000000, 0.0000000000000000000, 0.0000000000000000000 ) ) ;
#82 = DIRECTION ( 'NONE',  ( 0.0000000000000000000, 0.0000000000000000000, 1.000000000000000000 ) ) ;
#83 = CARTESIAN_POINT ( 'NONE',  ( 0.0000000000000000000, 0.0000000000000000000, 185.0000000000000000 ) ) ;
#84 = CARTESIAN_POINT ( 'NONE',  ( -13.99999999999999800, 0.0000000000000000000, 185.0000000000000000 ) ) ;
#85 = DIRECTION ( 'NONE',  ( -0.0000000000000000000, -0.0000000000000000000, -1.000000000000000000 ) ) ;
#86 = DIRECTION ( 'NONE',  ( 1.000000000000000000, 0.0000000000000000000, -0.0000000000000000000 ) ) ;
#87 = PLANE ( 'NONE',  #134 ) ;
#88 = APPLICATION_PROTOCOL_DEFINITION ( 'draft international standard', 'automotive_design', 1998, #79 ) ;
#89 = CARTESIAN_POINT ( 'NONE',  ( 0.0000000000000000000, 0.0000000000000000000, -185.0000000000000000 ) ) ;
#90 = DIRECTION ( 'NONE',  ( 0.0000000000000000000, 0.0000000000000000000, 1.000000000000000000 ) ) ;
#91 = DIRECTION ( 'NONE',  ( 0.0000000000000000000, 0.0000000000000000000, 1.000000000000000000 ) ) ;
#92 = DIRECTION ( 'NONE',  ( -0.0000000000000000000, -0.0000000000000000000, -1.000000000000000000 ) ) ;
#93 = SHAPE_DEFINITION_REPRESENTATION ( #6, #2 ) ;
#94 = CIRCLE ( 'NONE', #131, 13.99999999999999800 ) ;
#95 = PRESENTATION_STYLE_ASSIGNMENT (( #10 ) ) ;
#96 = SURFACE_STYLE_FILL_AREA ( #12 ) ;
#97 = COLOUR_RGB ( '',0.6470588235294118000, 0.6196078431372549200, 0.5882352941176470800 ) ;
#98 = FACE_BOUND ( 'NONE', #185, .T. ) ;
#99 = CIRCLE ( 'NONE', #132, 13.99999999999999800 ) ;
#100 = VECTOR ( 'NONE', #34, 1000.000000000000000 ) ;
#101 = VECTOR ( 'NONE', #56, 1000.000000000000000 ) ;
#102 = LINE ( 'NONE', #36, #100 ) ;
#103 = LINE ( 'NONE', #68, #101 ) ;
#104 = VECTOR ( 'NONE', #73, 1000.000000000000000 ) ;
#105 = CIRCLE ( 'NONE', #124, 15.00000000000000000 ) ;
#106 = LINE ( 'NONE', #54, #104 ) ;
#107 = CIRCLE ( 'NONE', #140, 13.99999999999999800 ) ;
#108 = CIRCLE ( 'NONE', #126, 15.00000000000000000 ) ;
#109 = CIRCLE ( 'NONE', #125, 15.00000000000000000 ) ;
#110 = CIRCLE ( 'NONE', #129, 13.99999999999999800 ) ;
#111 = CIRCLE ( 'NONE', #130, 15.00000000000000000 ) ;
#112 = CYLINDRICAL_SURFACE ( 'NONE', #135, 13.99999999999999800 ) ;
#113 = VECTOR ( 'NONE', #85, 1000.000000000000000 ) ;
#114 = LINE ( 'NONE', #84, #113 ) ;
#115 = ADVANCED_FACE ( 'NONE', ( #174 ), #168, .T. ) ;
#116 = ADVANCED_FACE ( 'NONE', ( #171, #166 ), #45, .T. ) ;
#117 = ADVANCED_FACE ( 'NONE', ( #173 ), #163, .F. ) ;
#118 = ADVANCED_FACE ( 'NONE', ( #170 ), #161, .T. ) ;
#119 = ADVANCED_FACE ( 'NONE', ( #164 ), #112, .F. ) ;
#120 = ADVANCED_FACE ( 'NONE', ( #162, #98 ), #87, .F. ) ;
#121 = PRESENTATION_LAYER_ASSIGNMENT (  '', '', ( #122 ) ) ;
#122 = STYLED_ITEM ( 'NONE', ( #95 ), #2 ) ;
#123 =( GEOMETRIC_REPRESENTATION_CONTEXT ( 3 ) GLOBAL_UNCERTAINTY_ASSIGNED_CONTEXT ( ( #3 ) ) GLOBAL_UNIT_ASSIGNED_CONTEXT ( ( #19, #18, #17 ) ) REPRESENTATION_CONTEXT ( 'NONE', 'WORKASPACE' ) );
#124 = AXIS2_PLACEMENT_3D ( 'NONE', #39, #38, #37 ) ;
#125 = AXIS2_PLACEMENT_3D ( 'NONE', #52, #51, #50 ) ;
#126 = AXIS2_PLACEMENT_3D ( 'NONE', #60, #59, #57 ) ;
#127 = PRODUCT_DEFINITION_FORMATION_WITH_SPECIFIED_SOURCE ( 'ANY', '', #214, .NOT_KNOWN. ) ;
#128 =( GEOMETRIC_REPRESENTATION_CONTEXT ( 3 ) GLOBAL_UNCERTAINTY_ASSIGNED_CONTEXT ( ( #5 ) ) GLOBAL_UNIT_ASSIGNED_CONTEXT ( ( #9, #8, #15 ) ) REPRESENTATION_CONTEXT ( 'NONE', 'WORKASPACE' ) );
#129 = AXIS2_PLACEMENT_3D ( 'NONE', #66, #62, #61 ) ;
#130 = AXIS2_PLACEMENT_3D ( 'NONE', #72, #71, #70 ) ;
#131 = AXIS2_PLACEMENT_3D ( 'NONE', #76, #75, #74 ) ;
#132 = AXIS2_PLACEMENT_3D ( 'NONE', #80, #78, #77 ) ;
#133 = MECHANICAL_DESIGN_GEOMETRIC_PRESENTATION_REPRESENTATION (  '', ( #122 ), #128 ) ;
#134 = AXIS2_PLACEMENT_3D ( 'NONE', #89, #90, #86 ) ;
#135 = AXIS2_PLACEMENT_3D ( 'NONE', #16, #28, #53 ) ;
#136 = AXIS2_PLACEMENT_3D ( 'NONE', #23, #22, #24 ) ;
#137 = AXIS2_PLACEMENT_3D ( 'NONE', #40, #92, #32 ) ;
#138 = AXIS2_PLACEMENT_3D ( 'NONE', #67, #91, #42 ) ;
#139 = AXIS2_PLACEMENT_3D ( 'NONE', #46, #69, #58 ) ;
#140 = AXIS2_PLACEMENT_3D ( 'NONE', #83, #82, #81 ) ;
#141 =( GEOMETRIC_REPRESENTATION_CONTEXT ( 3 ) GLOBAL_UNCERTAINTY_ASSIGNED_CONTEXT ( ( #1 ) ) GLOBAL_UNIT_ASSIGNED_CONTEXT ( ( #49, #25, #47 ) ) REPRESENTATION_CONTEXT ( 'NONE', 'WORKASPACE' ) );
#142 = MECHANICAL_DESIGN_GEOMETRIC_PRESENTATION_REPRESENTATION (  '', ( #144 ), #141 ) ;
#143 = PRESENTATION_LAYER_ASSIGNMENT (  '', '', ( #144 ) ) ;
#144 = STYLED_ITEM ( 'NONE', ( #180 ), #4 ) ;
#145 = EDGE_CURVE ( 'NONE', #182, #196, #107, .T. ) ;
#146 = EDGE_CURVE ( 'NONE', #196, #202, #114, .T. ) ;
#147 = EDGE_CURVE ( 'NONE', #196, #182, #99, .T. ) ;
#148 = EDGE_CURVE ( 'NONE', #202, #190, #94, .T. ) ;
#149 = EDGE_CURVE ( 'NONE', #181, #195, #111, .T. ) ;
#150 = EDGE_CURVE ( 'NONE', #190, #202, #110, .T. ) ;
#151 = PRODUCT_DEFINITION ( 'UNKNOWN', '', #127, #7 ) ;
#152 = PRODUCT_RELATED_PRODUCT_CATEGORY ( 'part', '', ( #214 ) ) ;
#153 = AXIS2_PLACEMENT_3D ( 'NONE', #20, #43, #27 ) ;
#154 = EDGE_CURVE ( 'NONE', #186, #194, #108, .T. ) ;
#155 = EDGE_CURVE ( 'NONE', #195, #181, #109, .T. ) ;
#156 = EDGE_CURVE ( 'NONE', #186, #195, #106, .T. ) ;
#157 = EDGE_CURVE ( 'NONE', #194, #186, #105, .T. ) ;
#158 = EDGE_CURVE ( 'NONE', #194, #181, #103, .T. ) ;
#159 = EDGE_CURVE ( 'NONE', #182, #190, #102, .T. ) ;
#160 = ORIENTED_EDGE ( 'NONE', *, *, #156, .F. ) ;
#161 = CYLINDRICAL_SURFACE ( 'NONE', #136, 15.00000000000000000 ) ;
#162 = FACE_OUTER_BOUND ( 'NONE', #198, .T. ) ;
#163 = CYLINDRICAL_SURFACE ( 'NONE', #137, 13.99999999999999800 ) ;
#164 = FACE_OUTER_BOUND ( 'NONE', #179, .T. ) ;
#165 = ORIENTED_EDGE ( 'NONE', *, *, #148, .F. ) ;
#166 = FACE_BOUND ( 'NONE', #200, .T. ) ;
#167 = SURFACE_STYLE_FILL_AREA ( #63 ) ;
#168 = CYLINDRICAL_SURFACE ( 'NONE', #139, 15.00000000000000000 ) ;
#169 = CLOSED_SHELL ( 'NONE', ( #119, #118, #116, #120, #115, #117 ) ) ;
#170 = FACE_OUTER_BOUND ( 'NONE', #188, .T. ) ;
#171 = FACE_OUTER_BOUND ( 'NONE', #212, .T. ) ;
#172 = ORIENTED_EDGE ( 'NONE', *, *, #155, .F. ) ;
#173 = FACE_OUTER_BOUND ( 'NONE', #178, .T. ) ;
#174 = FACE_OUTER_BOUND ( 'NONE', #206, .T. ) ;
#175 = ORIENTED_EDGE ( 'NONE', *, *, #149, .T. ) ;
#176 = ORIENTED_EDGE ( 'NONE', *, *, #159, .F. ) ;
#177 = ORIENTED_EDGE ( 'NONE', *, *, #145, .F. ) ;
#178 = EDGE_LOOP ( 'NONE', ( #176, #183, #209, #184 ) ) ;
#179 = EDGE_LOOP ( 'NONE', ( #213, #210, #165, #197 ) ) ;
#180 = PRESENTATION_STYLE_ASSIGNMENT (( #55 ) ) ;
#181 = VERTEX_POINT ( 'NONE', #35 ) ;
#182 = VERTEX_POINT ( 'NONE', #33 ) ;
#183 = ORIENTED_EDGE ( 'NONE', *, *, #145, .T. ) ;
#184 = ORIENTED_EDGE ( 'NONE', *, *, #150, .F. ) ;
#185 = EDGE_LOOP ( 'NONE', ( #192, #207 ) ) ;
#186 = VERTEX_POINT ( 'NONE', #41 ) ;
#187 = ORIENTED_EDGE ( 'NONE', *, *, #156, .T. ) ;
#188 = EDGE_LOOP ( 'NONE', ( #211, #187, #191, #204 ) ) ;
#189 = ORIENTED_EDGE ( 'NONE', *, *, #158, .T. ) ;
#190 = VERTEX_POINT ( 'NONE', #31 ) ;
#191 = ORIENTED_EDGE ( 'NONE', *, *, #155, .T. ) ;
#192 = ORIENTED_EDGE ( 'NONE', *, *, #148, .T. ) ;
#193 = ORIENTED_EDGE ( 'NONE', *, *, #147, .F. ) ;
#194 = VERTEX_POINT ( 'NONE', #48 ) ;
#195 = VERTEX_POINT ( 'NONE', #30 ) ;
#196 = VERTEX_POINT ( 'NONE', #26 ) ;
#197 = ORIENTED_EDGE ( 'NONE', *, *, #146, .F. ) ;
#198 = EDGE_LOOP ( 'NONE', ( #208, #172 ) ) ;
#199 = COLOUR_RGB ( '',0.6470588235294118000, 0.6196078431372549200, 0.5882352941176470800 ) ;
#200 = EDGE_LOOP ( 'NONE', ( #193, #177 ) ) ;
#201 = ORIENTED_EDGE ( 'NONE', *, *, #157, .F. ) ;
#202 = VERTEX_POINT ( 'NONE', #29 ) ;
#203 = ORIENTED_EDGE ( 'NONE', *, *, #157, .T. ) ;
#204 = ORIENTED_EDGE ( 'NONE', *, *, #158, .F. ) ;
#205 = ORIENTED_EDGE ( 'NONE', *, *, #154, .T. ) ;
#206 = EDGE_LOOP ( 'NONE', ( #160, #201, #189, #175 ) ) ;
#207 = ORIENTED_EDGE ( 'NONE', *, *, #150, .T. ) ;
#208 = ORIENTED_EDGE ( 'NONE', *, *, #149, .F. ) ;
#209 = ORIENTED_EDGE ( 'NONE', *, *, #146, .T. ) ;
#210 = ORIENTED_EDGE ( 'NONE', *, *, #159, .T. ) ;
#211 = ORIENTED_EDGE ( 'NONE', *, *, #154, .F. ) ;
#212 = EDGE_LOOP ( 'NONE', ( #203, #205 ) ) ;
#213 = ORIENTED_EDGE ( 'NONE', *, *, #147, .T. ) ;
#214 = PRODUCT ( '092013e500', '092013e500', '', ( #44 ) ) ;
ENDSEC;
END-ISO-10303-21;
