ISO-10303-21;
HEADER;
FILE_DESCRIPTION (( 'STEP AP214' ),
    '1' );
FILE_NAME ('092013e.2000.STEP',
    '2013-01-25T07:03:59',
    ( '' ),
    ( '' ),
    'SwSTEP 2.0',
    'SolidWorks 2012',
    '' );
FILE_SCHEMA (( 'AUTOMOTIVE_DESIGN' ));
ENDSEC;

DATA;
#1 = MANIFOLD_SOLID_BREP ( 'Linear austragen1', #106 ) ;
#2 = UNCERTAINTY_MEASURE_WITH_UNIT (LENGTH_MEASURE( 1.000000000000000100E-005 ), #41, 'distance_accuracy_value', 'NONE');
#3 = ADVANCED_BREP_SHAPE_REPRESENTATION ( '092013e.2000', ( #1, #142 ), #147 ) ;
#4 = UNCERTAINTY_MEASURE_WITH_UNIT (LENGTH_MEASURE( 1.000000000000000100E-005 ), #14, 'distance_accuracy_value', 'NONE');
#5 = UNCERTAINTY_MEASURE_WITH_UNIT (LENGTH_MEASURE( 1.000000000000000100E-005 ), #74, 'distance_accuracy_value', 'NONE');
#6 = PRODUCT_DEFINITION_CONTEXT ( 'detailed design', #86, 'design' ) ;
#7 = PRODUCT_DEFINITION_SHAPE ( 'NONE', 'NONE',  #141 ) ;
#8 = FILL_AREA_STYLE ('',( #10 ) ) ;
#9 = CARTESIAN_POINT ( 'NONE',  ( 0.0000000000000000000, 0.0000000000000000000, -1000.000000000000000 ) ) ;
#10 = FILL_AREA_STYLE_COLOUR ( '', #113 ) ;
#11 = CARTESIAN_POINT ( 'NONE',  ( -13.99999999999999800, 0.0000000000000000000, 1000.000000000000000 ) ) ;
#12 = SURFACE_SIDE_STYLE ('',( #100 ) ) ;
#13 = SURFACE_STYLE_USAGE ( .BOTH. , #12 ) ;
#14 =( LENGTH_UNIT ( ) NAMED_UNIT ( * ) SI_UNIT ( .MILLI., .METRE. ) );
#15 =( NAMED_UNIT ( * ) PLANE_ANGLE_UNIT ( ) SI_UNIT ( $, .RADIAN. ) );
#16 =( NAMED_UNIT ( * ) SI_UNIT ( $, .STERADIAN. ) SOLID_ANGLE_UNIT ( ) );
#17 = PLANE ( 'NONE',  #165 ) ;
#18 = CARTESIAN_POINT ( 'NONE',  ( 15.00000000000000000, 1.836970198721029600E-015, 1000.000000000000000 ) ) ;
#19 = DIRECTION ( 'NONE',  ( -0.0000000000000000000, -0.0000000000000000000, -1.000000000000000000 ) ) ;
#20 = DIRECTION ( 'NONE',  ( 0.0000000000000000000, 0.0000000000000000000, 1.000000000000000000 ) ) ;
#21 = DIRECTION ( 'NONE',  ( 1.000000000000000000, 0.0000000000000000000, -0.0000000000000000000 ) ) ;
#22 = CARTESIAN_POINT ( 'NONE',  ( 0.0000000000000000000, 0.0000000000000000000, 1000.000000000000000 ) ) ;
#23 = CARTESIAN_POINT ( 'NONE',  ( 0.0000000000000000000, 0.0000000000000000000, 1000.000000000000000 ) ) ;
#24 = DIRECTION ( 'NONE',  ( -1.000000000000000000, 0.0000000000000000000, 0.0000000000000000000 ) ) ;
#25 = CARTESIAN_POINT ( 'NONE',  ( 0.0000000000000000000, 0.0000000000000000000, 1000.000000000000000 ) ) ;
#26 = DIRECTION ( 'NONE',  ( -0.0000000000000000000, -0.0000000000000000000, -1.000000000000000000 ) ) ;
#27 = DIRECTION ( 'NONE',  ( -1.000000000000000000, 0.0000000000000000000, 0.0000000000000000000 ) ) ;
#28 = CARTESIAN_POINT ( 'NONE',  ( 0.0000000000000000000, 0.0000000000000000000, 1000.000000000000000 ) ) ;
#29 = DIRECTION ( 'NONE',  ( -0.0000000000000000000, -0.0000000000000000000, -1.000000000000000000 ) ) ;
#30 = DIRECTION ( 'NONE',  ( -1.000000000000000000, 0.0000000000000000000, 0.0000000000000000000 ) ) ;
#31 = CARTESIAN_POINT ( 'NONE',  ( 0.0000000000000000000, 0.0000000000000000000, 1000.000000000000000 ) ) ;
#32 = DIRECTION ( 'NONE',  ( 0.0000000000000000000, 0.0000000000000000000, 1.000000000000000000 ) ) ;
#33 = DIRECTION ( 'NONE',  ( -0.0000000000000000000, -0.0000000000000000000, -1.000000000000000000 ) ) ;
#34 = DIRECTION ( 'NONE',  ( 1.000000000000000000, 0.0000000000000000000, 0.0000000000000000000 ) ) ;
#35 = CARTESIAN_POINT ( 'NONE',  ( -15.00000000000000000, 0.0000000000000000000, -1000.000000000000000 ) ) ;
#36 = DIRECTION ( 'NONE',  ( 0.0000000000000000000, 0.0000000000000000000, 1.000000000000000000 ) ) ;
#37 = CARTESIAN_POINT ( 'NONE',  ( 0.0000000000000000000, 0.0000000000000000000, -1000.000000000000000 ) ) ;
#38 = PLANE ( 'NONE',  #157 ) ;
#39 = DIRECTION ( 'NONE',  ( 1.000000000000000000, 0.0000000000000000000, -0.0000000000000000000 ) ) ;
#40 = DIRECTION ( 'NONE',  ( -0.0000000000000000000, -0.0000000000000000000, -1.000000000000000000 ) ) ;
#41 =( LENGTH_UNIT ( ) NAMED_UNIT ( * ) SI_UNIT ( .MILLI., .METRE. ) );
#42 = CARTESIAN_POINT ( 'NONE',  ( -15.00000000000000000, 0.0000000000000000000, 1000.000000000000000 ) ) ;
#43 =( NAMED_UNIT ( * ) PLANE_ANGLE_UNIT ( ) SI_UNIT ( $, .RADIAN. ) );
#44 =( NAMED_UNIT ( * ) SI_UNIT ( $, .STERADIAN. ) SOLID_ANGLE_UNIT ( ) );
#45 = CARTESIAN_POINT ( 'NONE',  ( 0.0000000000000000000, 0.0000000000000000000, 1000.000000000000000 ) ) ;
#46 = DIRECTION ( 'NONE',  ( 0.0000000000000000000, 0.0000000000000000000, 1.000000000000000000 ) ) ;
#47 = FILL_AREA_STYLE_COLOUR ( '', #211 ) ;
#48 = DIRECTION ( 'NONE',  ( 1.000000000000000000, 0.0000000000000000000, 0.0000000000000000000 ) ) ;
#49 = CARTESIAN_POINT ( 'NONE',  ( 0.0000000000000000000, 0.0000000000000000000, -1000.000000000000000 ) ) ;
#50 = DIRECTION ( 'NONE',  ( 0.0000000000000000000, 0.0000000000000000000, 1.000000000000000000 ) ) ;
#51 = DIRECTION ( 'NONE',  ( 1.000000000000000000, 0.0000000000000000000, 0.0000000000000000000 ) ) ;
#52 = CARTESIAN_POINT ( 'NONE',  ( 13.99999999999999800, 1.714505518806294400E-015, 1000.000000000000000 ) ) ;
#53 = CARTESIAN_POINT ( 'NONE',  ( 0.0000000000000000000, 0.0000000000000000000, 1000.000000000000000 ) ) ;
#54 = APPLICATION_PROTOCOL_DEFINITION ( 'draft international standard', 'automotive_design', 1998, #59 ) ;
#55 = DIRECTION ( 'NONE',  ( 0.0000000000000000000, 0.0000000000000000000, 1.000000000000000000 ) ) ;
#56 = DIRECTION ( 'NONE',  ( 1.000000000000000000, 0.0000000000000000000, 0.0000000000000000000 ) ) ;
#57 = DIRECTION ( 'NONE',  ( -0.0000000000000000000, -0.0000000000000000000, -1.000000000000000000 ) ) ;
#58 = CARTESIAN_POINT ( 'NONE',  ( 0.0000000000000000000, 0.0000000000000000000, -1000.000000000000000 ) ) ;
#59 = APPLICATION_CONTEXT ( 'automotive_design' ) ;
#60 = DIRECTION ( 'NONE',  ( 0.0000000000000000000, 0.0000000000000000000, 1.000000000000000000 ) ) ;
#61 = DIRECTION ( 'NONE',  ( 1.000000000000000000, 0.0000000000000000000, 0.0000000000000000000 ) ) ;
#62 = DIRECTION ( 'NONE',  ( -0.0000000000000000000, -0.0000000000000000000, -1.000000000000000000 ) ) ;
#63 = CARTESIAN_POINT ( 'NONE',  ( -13.99999999999999800, 0.0000000000000000000, 1000.000000000000000 ) ) ;
#64 = CARTESIAN_POINT ( 'NONE',  ( 0.0000000000000000000, 0.0000000000000000000, 1000.000000000000000 ) ) ;
#65 = SURFACE_SIDE_STYLE ('',( #212 ) ) ;
#66 = FILL_AREA_STYLE ('',( #47 ) ) ;
#67 = CARTESIAN_POINT ( 'NONE',  ( 13.99999999999999800, 1.714505518806294400E-015, -1000.000000000000000 ) ) ;
#68 = DIRECTION ( 'NONE',  ( 0.0000000000000000000, 0.0000000000000000000, 1.000000000000000000 ) ) ;
#69 = DIRECTION ( 'NONE',  ( 1.000000000000000000, 0.0000000000000000000, 0.0000000000000000000 ) ) ;
#70 =( NAMED_UNIT ( * ) PLANE_ANGLE_UNIT ( ) SI_UNIT ( $, .RADIAN. ) );
#71 = CARTESIAN_POINT ( 'NONE',  ( -15.00000000000000000, 0.0000000000000000000, 1000.000000000000000 ) ) ;
#72 = SURFACE_STYLE_USAGE ( .BOTH. , #65 ) ;
#73 = CARTESIAN_POINT ( 'NONE',  ( 15.00000000000000000, 1.836970198721029600E-015, 1000.000000000000000 ) ) ;
#74 =( LENGTH_UNIT ( ) NAMED_UNIT ( * ) SI_UNIT ( .MILLI., .METRE. ) );
#75 = DIRECTION ( 'NONE',  ( -0.0000000000000000000, -0.0000000000000000000, -1.000000000000000000 ) ) ;
#76 = CARTESIAN_POINT ( 'NONE',  ( 0.0000000000000000000, 0.0000000000000000000, -1000.000000000000000 ) ) ;
#77 = DIRECTION ( 'NONE',  ( 1.000000000000000000, 0.0000000000000000000, 0.0000000000000000000 ) ) ;
#78 =( NAMED_UNIT ( * ) SI_UNIT ( $, .STERADIAN. ) SOLID_ANGLE_UNIT ( ) );
#79 = CARTESIAN_POINT ( 'NONE',  ( 0.0000000000000000000, 0.0000000000000000000, 0.0000000000000000000 ) ) ;
#80 = DIRECTION ( 'NONE',  ( 0.0000000000000000000, 0.0000000000000000000, 1.000000000000000000 ) ) ;
#81 = DIRECTION ( 'NONE',  ( 0.0000000000000000000, 0.0000000000000000000, 1.000000000000000000 ) ) ;
#82 = DIRECTION ( 'NONE',  ( 1.000000000000000000, 0.0000000000000000000, 0.0000000000000000000 ) ) ;
#83 = PRODUCT_CONTEXT ( 'NONE', #59, 'mechanical' ) ;
#84 = CARTESIAN_POINT ( 'NONE',  ( 15.00000000000000000, 1.836970198721029600E-015, -1000.000000000000000 ) ) ;
#85 = CARTESIAN_POINT ( 'NONE',  ( -13.99999999999999800, 0.0000000000000000000, -1000.000000000000000 ) ) ;
#86 = APPLICATION_CONTEXT ( 'automotive_design' ) ;
#87 = DIRECTION ( 'NONE',  ( 0.0000000000000000000, 0.0000000000000000000, 1.000000000000000000 ) ) ;
#88 = DIRECTION ( 'NONE',  ( -1.000000000000000000, 0.0000000000000000000, 0.0000000000000000000 ) ) ;
#89 = CARTESIAN_POINT ( 'NONE',  ( 0.0000000000000000000, 0.0000000000000000000, 1000.000000000000000 ) ) ;
#90 = DIRECTION ( 'NONE',  ( 1.000000000000000000, 0.0000000000000000000, 0.0000000000000000000 ) ) ;
#91 = APPLICATION_PROTOCOL_DEFINITION ( 'draft international standard', 'automotive_design', 1998, #86 ) ;
#92 = CARTESIAN_POINT ( 'NONE',  ( 13.99999999999999800, 1.714505518806294400E-015, 1000.000000000000000 ) ) ;
#93 = EDGE_LOOP ( 'NONE', ( #99, #125, #108, #95 ) ) ;
#94 = ORIENTED_EDGE ( 'NONE', *, *, #173, .F. ) ;
#95 = ORIENTED_EDGE ( 'NONE', *, *, #150, .F. ) ;
#96 = ORIENTED_EDGE ( 'NONE', *, *, #158, .T. ) ;
#97 = ORIENTED_EDGE ( 'NONE', *, *, #170, .T. ) ;
#98 = ORIENTED_EDGE ( 'NONE', *, *, #164, .F. ) ;
#99 = ORIENTED_EDGE ( 'NONE', *, *, #174, .F. ) ;
#100 = SURFACE_STYLE_FILL_AREA ( #8 ) ;
#101 = EDGE_LOOP ( 'NONE', ( #115, #114, #105, #124 ) ) ;
#102 = ORIENTED_EDGE ( 'NONE', *, *, #158, .F. ) ;
#103 = EDGE_LOOP ( 'NONE', ( #98, #126 ) ) ;
#104 = ORIENTED_EDGE ( 'NONE', *, *, #166, .T. ) ;
#105 = ORIENTED_EDGE ( 'NONE', *, *, #150, .T. ) ;
#106 = CLOSED_SHELL ( 'NONE', ( #134, #135, #132, #137, #136, #133 ) ) ;
#107 = VERTEX_POINT ( 'NONE', #18 ) ;
#108 = ORIENTED_EDGE ( 'NONE', *, *, #176, .T. ) ;
#109 = ORIENTED_EDGE ( 'NONE', *, *, #139, .T. ) ;
#110 = VERTEX_POINT ( 'NONE', #11 ) ;
#111 = EDGE_LOOP ( 'NONE', ( #109, #118 ) ) ;
#112 = ORIENTED_EDGE ( 'NONE', *, *, #168, .F. ) ;
#113 = COLOUR_RGB ( '',0.6470588235294118000, 0.6196078431372549200, 0.5882352941176470800 ) ;
#114 = ORIENTED_EDGE ( 'NONE', *, *, #139, .F. ) ;
#115 = ORIENTED_EDGE ( 'NONE', *, *, #175, .F. ) ;
#116 = EDGE_LOOP ( 'NONE', ( #94, #96, #123, #122 ) ) ;
#117 = VERTEX_POINT ( 'NONE', #71 ) ;
#118 = ORIENTED_EDGE ( 'NONE', *, *, #174, .T. ) ;
#119 = ORIENTED_EDGE ( 'NONE', *, *, #166, .F. ) ;
#120 = EDGE_LOOP ( 'NONE', ( #127, #97 ) ) ;
#121 = EDGE_LOOP ( 'NONE', ( #104, #129, #128, #112 ) ) ;
#122 = ORIENTED_EDGE ( 'NONE', *, *, #170, .F. ) ;
#123 = ORIENTED_EDGE ( 'NONE', *, *, #168, .T. ) ;
#124 = ORIENTED_EDGE ( 'NONE', *, *, #164, .T. ) ;
#125 = ORIENTED_EDGE ( 'NONE', *, *, #175, .T. ) ;
#126 = ORIENTED_EDGE ( 'NONE', *, *, #176, .F. ) ;
#127 = ORIENTED_EDGE ( 'NONE', *, *, #153, .T. ) ;
#128 = ORIENTED_EDGE ( 'NONE', *, *, #153, .F. ) ;
#129 = ORIENTED_EDGE ( 'NONE', *, *, #173, .T. ) ;
#130 = EDGE_LOOP ( 'NONE', ( #119, #102 ) ) ;
#131 = VERTEX_POINT ( 'NONE', #85 ) ;
#132 = ADVANCED_FACE ( 'NONE', ( #199, #198 ), #17, .T. ) ;
#133 = ADVANCED_FACE ( 'NONE', ( #197 ), #190, .F. ) ;
#134 = ADVANCED_FACE ( 'NONE', ( #195 ), #188, .F. ) ;
#135 = ADVANCED_FACE ( 'NONE', ( #191 ), #186, .T. ) ;
#136 = ADVANCED_FACE ( 'NONE', ( #189 ), #182, .T. ) ;
#137 = ADVANCED_FACE ( 'NONE', ( #187, #181 ), #38, .F. ) ;
#138 = PRODUCT_RELATED_PRODUCT_CATEGORY ( 'part', '', ( #214 ) ) ;
#139 = EDGE_CURVE ( 'NONE', #117, #107, #200, .T. ) ;
#140 = PRODUCT_DEFINITION_FORMATION_WITH_SPECIFIED_SOURCE ( 'ANY', '', #214, .NOT_KNOWN. ) ;
#141 = PRODUCT_DEFINITION ( 'UNKNOWN', '', #140, #6 ) ;
#142 = AXIS2_PLACEMENT_3D ( 'NONE', #79, #80, #77 ) ;
#143 =( GEOMETRIC_REPRESENTATION_CONTEXT ( 3 ) GLOBAL_UNCERTAINTY_ASSIGNED_CONTEXT ( ( #5 ) ) GLOBAL_UNIT_ASSIGNED_CONTEXT ( ( #74, #70, #78 ) ) REPRESENTATION_CONTEXT ( 'NONE', 'WORKASPACE' ) );
#144 = MECHANICAL_DESIGN_GEOMETRIC_PRESENTATION_REPRESENTATION (  '', ( #146 ), #143 ) ;
#145 = PRESENTATION_LAYER_ASSIGNMENT (  '', '', ( #146 ) ) ;
#146 = STYLED_ITEM ( 'NONE', ( #213 ), #3 ) ;
#147 =( GEOMETRIC_REPRESENTATION_CONTEXT ( 3 ) GLOBAL_UNCERTAINTY_ASSIGNED_CONTEXT ( ( #2 ) ) GLOBAL_UNIT_ASSIGNED_CONTEXT ( ( #41, #43, #44 ) ) REPRESENTATION_CONTEXT ( 'NONE', 'WORKASPACE' ) );
#148 = AXIS2_PLACEMENT_3D ( 'NONE', #9, #32, #34 ) ;
#149 = AXIS2_PLACEMENT_3D ( 'NONE', #89, #87, #90 ) ;
#150 = EDGE_CURVE ( 'NONE', #117, #209, #192, .T. ) ;
#151 = AXIS2_PLACEMENT_3D ( 'NONE', #76, #81, #82 ) ;
#152 = AXIS2_PLACEMENT_3D ( 'NONE', #64, #68, #69 ) ;
#153 = EDGE_CURVE ( 'NONE', #131, #208, #180, .T. ) ;
#154 = AXIS2_PLACEMENT_3D ( 'NONE', #58, #60, #61 ) ;
#155 = AXIS2_PLACEMENT_3D ( 'NONE', #53, #55, #56 ) ;
#156 = AXIS2_PLACEMENT_3D ( 'NONE', #49, #50, #51 ) ;
#157 = AXIS2_PLACEMENT_3D ( 'NONE', #37, #36, #39 ) ;
#158 = EDGE_CURVE ( 'NONE', #206, #110, #184, .T. ) ;
#159 = AXIS2_PLACEMENT_3D ( 'NONE', #31, #33, #30 ) ;
#160 = AXIS2_PLACEMENT_3D ( 'NONE', #28, #29, #27 ) ;
#161 = AXIS2_PLACEMENT_3D ( 'NONE', #25, #26, #24 ) ;
#162 = AXIS2_PLACEMENT_3D ( 'NONE', #23, #19, #88 ) ;
#163 = AXIS2_PLACEMENT_3D ( 'NONE', #45, #46, #48 ) ;
#164 = EDGE_CURVE ( 'NONE', #209, #210, #177, .T. ) ;
#165 = AXIS2_PLACEMENT_3D ( 'NONE', #22, #20, #21 ) ;
#166 = EDGE_CURVE ( 'NONE', #110, #206, #205, .T. ) ;
#167 =( GEOMETRIC_REPRESENTATION_CONTEXT ( 3 ) GLOBAL_UNCERTAINTY_ASSIGNED_CONTEXT ( ( #4 ) ) GLOBAL_UNIT_ASSIGNED_CONTEXT ( ( #14, #15, #16 ) ) REPRESENTATION_CONTEXT ( 'NONE', 'WORKASPACE' ) );
#168 = EDGE_CURVE ( 'NONE', #110, #131, #203, .T. ) ;
#169 = MECHANICAL_DESIGN_GEOMETRIC_PRESENTATION_REPRESENTATION (  '', ( #172 ), #167 ) ;
#170 = EDGE_CURVE ( 'NONE', #208, #131, #194, .T. ) ;
#171 = PRESENTATION_LAYER_ASSIGNMENT (  '', '', ( #172 ) ) ;
#172 = STYLED_ITEM ( 'NONE', ( #207 ), #1 ) ;
#173 = EDGE_CURVE ( 'NONE', #206, #208, #183, .T. ) ;
#174 = EDGE_CURVE ( 'NONE', #107, #117, #179, .T. ) ;
#175 = EDGE_CURVE ( 'NONE', #107, #210, #202, .T. ) ;
#176 = EDGE_CURVE ( 'NONE', #210, #209, #204, .T. ) ;
#177 = CIRCLE ( 'NONE', #154, 15.00000000000000000 ) ;
#178 = VECTOR ( 'NONE', #40, 1000.000000000000000 ) ;
#179 = CIRCLE ( 'NONE', #149, 15.00000000000000000 ) ;
#180 = CIRCLE ( 'NONE', #156, 13.99999999999999800 ) ;
#181 = FACE_BOUND ( 'NONE', #120, .T. ) ;
#182 = CYLINDRICAL_SURFACE ( 'NONE', #159, 15.00000000000000000 ) ;
#183 = LINE ( 'NONE', #52, #185 ) ;
#184 = CIRCLE ( 'NONE', #155, 13.99999999999999800 ) ;
#185 = VECTOR ( 'NONE', #62, 1000.000000000000000 ) ;
#186 = CYLINDRICAL_SURFACE ( 'NONE', #160, 15.00000000000000000 ) ;
#187 = FACE_OUTER_BOUND ( 'NONE', #103, .T. ) ;
#188 = CYLINDRICAL_SURFACE ( 'NONE', #161, 13.99999999999999800 ) ;
#189 = FACE_OUTER_BOUND ( 'NONE', #101, .T. ) ;
#190 = CYLINDRICAL_SURFACE ( 'NONE', #162, 13.99999999999999800 ) ;
#191 = FACE_OUTER_BOUND ( 'NONE', #93, .T. ) ;
#192 = LINE ( 'NONE', #42, #178 ) ;
#193 = VECTOR ( 'NONE', #75, 1000.000000000000000 ) ;
#194 = CIRCLE ( 'NONE', #151, 13.99999999999999800 ) ;
#195 = FACE_OUTER_BOUND ( 'NONE', #121, .T. ) ;
#196 = VECTOR ( 'NONE', #57, 1000.000000000000000 ) ;
#197 = FACE_OUTER_BOUND ( 'NONE', #116, .T. ) ;
#198 = FACE_BOUND ( 'NONE', #130, .T. ) ;
#199 = FACE_OUTER_BOUND ( 'NONE', #111, .T. ) ;
#200 = CIRCLE ( 'NONE', #163, 15.00000000000000000 ) ;
#201 = SHAPE_DEFINITION_REPRESENTATION ( #7, #3 ) ;
#202 = LINE ( 'NONE', #73, #193 ) ;
#203 = LINE ( 'NONE', #63, #196 ) ;
#204 = CIRCLE ( 'NONE', #148, 15.00000000000000000 ) ;
#205 = CIRCLE ( 'NONE', #152, 13.99999999999999800 ) ;
#206 = VERTEX_POINT ( 'NONE', #92 ) ;
#207 = PRESENTATION_STYLE_ASSIGNMENT (( #13 ) ) ;
#208 = VERTEX_POINT ( 'NONE', #67 ) ;
#209 = VERTEX_POINT ( 'NONE', #35 ) ;
#210 = VERTEX_POINT ( 'NONE', #84 ) ;
#211 = COLOUR_RGB ( '',0.6470588235294118000, 0.6196078431372549200, 0.5882352941176470800 ) ;
#212 = SURFACE_STYLE_FILL_AREA ( #66 ) ;
#213 = PRESENTATION_STYLE_ASSIGNMENT (( #72 ) ) ;
#214 = PRODUCT ( '092013e.2000', '092013e.2000', '', ( #83 ) ) ;
ENDSEC;
END-ISO-10303-21;
