ISO-10303-21;
HEADER;
FILE_DESCRIPTION (( 'STEP AP214' ),
    '1' );
FILE_NAME ('092013e200.STEP',
    '2013-01-25T07:02:27',
    ( '' ),
    ( '' ),
    'SwSTEP 2.0',
    'SolidWorks 2012',
    '' );
FILE_SCHEMA (( 'AUTOMOTIVE_DESIGN' ));
ENDSEC;

DATA;
#1 = ADVANCED_BREP_SHAPE_REPRESENTATION ( '092013e200', ( #2, #138 ), #145 ) ;
#2 = MANIFOLD_SOLID_BREP ( 'Linear austragen1', #209 ) ;
#3 = UNCERTAINTY_MEASURE_WITH_UNIT (LENGTH_MEASURE( 1.000000000000000100E-005 ), #21, 'distance_accuracy_value', 'NONE');
#4 = UNCERTAINTY_MEASURE_WITH_UNIT (LENGTH_MEASURE( 1.000000000000000100E-005 ), #67, 'distance_accuracy_value', 'NONE');
#5 = UNCERTAINTY_MEASURE_WITH_UNIT (LENGTH_MEASURE( 1.000000000000000100E-005 ), #85, 'distance_accuracy_value', 'NONE');
#6 = PRODUCT_DEFINITION_CONTEXT ( 'detailed design', #12, 'design' ) ;
#7 = PRODUCT_DEFINITION_SHAPE ( 'NONE', 'NONE',  #137 ) ;
#8 = DIRECTION ( 'NONE',  ( 0.0000000000000000000, 0.0000000000000000000, 1.000000000000000000 ) ) ;
#9 = DIRECTION ( 'NONE',  ( -0.0000000000000000000, -0.0000000000000000000, -1.000000000000000000 ) ) ;
#10 =( NAMED_UNIT ( * ) SI_UNIT ( $, .STERADIAN. ) SOLID_ANGLE_UNIT ( ) );
#11 = APPLICATION_PROTOCOL_DEFINITION ( 'draft international standard', 'automotive_design', 1998, #12 ) ;
#12 = APPLICATION_CONTEXT ( 'automotive_design' ) ;
#13 = PRODUCT_CONTEXT ( 'NONE', #32, 'mechanical' ) ;
#14 =( NAMED_UNIT ( * ) PLANE_ANGLE_UNIT ( ) SI_UNIT ( $, .RADIAN. ) );
#15 =( NAMED_UNIT ( * ) SI_UNIT ( $, .STERADIAN. ) SOLID_ANGLE_UNIT ( ) );
#16 = SURFACE_STYLE_USAGE ( .BOTH. , #79 ) ;
#17 = DIRECTION ( 'NONE',  ( 1.000000000000000000, 0.0000000000000000000, 0.0000000000000000000 ) ) ;
#18 = DIRECTION ( 'NONE',  ( 0.0000000000000000000, 0.0000000000000000000, 1.000000000000000000 ) ) ;
#19 =( NAMED_UNIT ( * ) PLANE_ANGLE_UNIT ( ) SI_UNIT ( $, .RADIAN. ) );
#20 = DIRECTION ( 'NONE',  ( -1.000000000000000000, 0.0000000000000000000, 0.0000000000000000000 ) ) ;
#21 =( LENGTH_UNIT ( ) NAMED_UNIT ( * ) SI_UNIT ( .MILLI., .METRE. ) );
#22 =( NAMED_UNIT ( * ) SI_UNIT ( $, .STERADIAN. ) SOLID_ANGLE_UNIT ( ) );
#23 = CARTESIAN_POINT ( 'NONE',  ( 0.0000000000000000000, 0.0000000000000000000, -35.00000000000000000 ) ) ;
#24 = CARTESIAN_POINT ( 'NONE',  ( 15.00000000000000000, 1.836970198721029600E-015, -35.00000000000000000 ) ) ;
#25 = DIRECTION ( 'NONE',  ( -0.0000000000000000000, -0.0000000000000000000, -1.000000000000000000 ) ) ;
#26 = CARTESIAN_POINT ( 'NONE',  ( 13.99999999999999800, 1.714505518806294400E-015, -35.00000000000000000 ) ) ;
#27 = SURFACE_STYLE_USAGE ( .BOTH. , #57 ) ;
#28 = DIRECTION ( 'NONE',  ( -0.0000000000000000000, -0.0000000000000000000, -1.000000000000000000 ) ) ;
#29 = CARTESIAN_POINT ( 'NONE',  ( -15.00000000000000000, 0.0000000000000000000, 35.00000000000000000 ) ) ;
#30 = PLANE ( 'NONE',  #157 ) ;
#31 = CARTESIAN_POINT ( 'NONE',  ( 15.00000000000000000, 1.836970198721029600E-015, 35.00000000000000000 ) ) ;
#32 = APPLICATION_CONTEXT ( 'automotive_design' ) ;
#33 = DIRECTION ( 'NONE',  ( 1.000000000000000000, 0.0000000000000000000, 0.0000000000000000000 ) ) ;
#34 = DIRECTION ( 'NONE',  ( 0.0000000000000000000, 0.0000000000000000000, 1.000000000000000000 ) ) ;
#35 = DIRECTION ( 'NONE',  ( 0.0000000000000000000, 0.0000000000000000000, 1.000000000000000000 ) ) ;
#36 = CARTESIAN_POINT ( 'NONE',  ( 0.0000000000000000000, 0.0000000000000000000, 35.00000000000000000 ) ) ;
#37 = DIRECTION ( 'NONE',  ( -0.0000000000000000000, -0.0000000000000000000, -1.000000000000000000 ) ) ;
#38 = DIRECTION ( 'NONE',  ( 1.000000000000000000, 0.0000000000000000000, -0.0000000000000000000 ) ) ;
#39 = DIRECTION ( 'NONE',  ( 1.000000000000000000, 0.0000000000000000000, 0.0000000000000000000 ) ) ;
#40 = DIRECTION ( 'NONE',  ( 0.0000000000000000000, 0.0000000000000000000, 1.000000000000000000 ) ) ;
#41 = CARTESIAN_POINT ( 'NONE',  ( 0.0000000000000000000, 0.0000000000000000000, 35.00000000000000000 ) ) ;
#42 = DIRECTION ( 'NONE',  ( -0.0000000000000000000, -0.0000000000000000000, -1.000000000000000000 ) ) ;
#43 = DIRECTION ( 'NONE',  ( 1.000000000000000000, 0.0000000000000000000, 0.0000000000000000000 ) ) ;
#44 = CARTESIAN_POINT ( 'NONE',  ( -13.99999999999999800, 0.0000000000000000000, 35.00000000000000000 ) ) ;
#45 = DIRECTION ( 'NONE',  ( 0.0000000000000000000, 0.0000000000000000000, 1.000000000000000000 ) ) ;
#46 = CARTESIAN_POINT ( 'NONE',  ( 0.0000000000000000000, 0.0000000000000000000, 35.00000000000000000 ) ) ;
#47 = DIRECTION ( 'NONE',  ( 1.000000000000000000, 0.0000000000000000000, 0.0000000000000000000 ) ) ;
#48 = CARTESIAN_POINT ( 'NONE',  ( 0.0000000000000000000, 0.0000000000000000000, 35.00000000000000000 ) ) ;
#49 = DIRECTION ( 'NONE',  ( 1.000000000000000000, 0.0000000000000000000, 0.0000000000000000000 ) ) ;
#50 = APPLICATION_PROTOCOL_DEFINITION ( 'draft international standard', 'automotive_design', 1998, #32 ) ;
#51 = DIRECTION ( 'NONE',  ( -1.000000000000000000, 0.0000000000000000000, 0.0000000000000000000 ) ) ;
#52 = DIRECTION ( 'NONE',  ( -0.0000000000000000000, -0.0000000000000000000, -1.000000000000000000 ) ) ;
#53 = CARTESIAN_POINT ( 'NONE',  ( -15.00000000000000000, 0.0000000000000000000, -35.00000000000000000 ) ) ;
#54 = DIRECTION ( 'NONE',  ( 0.0000000000000000000, 0.0000000000000000000, 1.000000000000000000 ) ) ;
#55 = CARTESIAN_POINT ( 'NONE',  ( 0.0000000000000000000, 0.0000000000000000000, 35.00000000000000000 ) ) ;
#56 = CARTESIAN_POINT ( 'NONE',  ( 0.0000000000000000000, 0.0000000000000000000, 35.00000000000000000 ) ) ;
#57 = SURFACE_SIDE_STYLE ('',( #207 ) ) ;
#58 = DIRECTION ( 'NONE',  ( 1.000000000000000000, 0.0000000000000000000, -0.0000000000000000000 ) ) ;
#59 = CARTESIAN_POINT ( 'NONE',  ( 0.0000000000000000000, 0.0000000000000000000, -35.00000000000000000 ) ) ;
#60 = CARTESIAN_POINT ( 'NONE',  ( 13.99999999999999800, 1.714505518806294400E-015, 35.00000000000000000 ) ) ;
#61 = CARTESIAN_POINT ( 'NONE',  ( 0.0000000000000000000, 0.0000000000000000000, -35.00000000000000000 ) ) ;
#62 = DIRECTION ( 'NONE',  ( 0.0000000000000000000, 0.0000000000000000000, 1.000000000000000000 ) ) ;
#63 = CARTESIAN_POINT ( 'NONE',  ( 0.0000000000000000000, 0.0000000000000000000, -35.00000000000000000 ) ) ;
#64 = DIRECTION ( 'NONE',  ( 1.000000000000000000, 0.0000000000000000000, 0.0000000000000000000 ) ) ;
#65 = CARTESIAN_POINT ( 'NONE',  ( -15.00000000000000000, 0.0000000000000000000, 35.00000000000000000 ) ) ;
#66 = CARTESIAN_POINT ( 'NONE',  ( 15.00000000000000000, 1.836970198721029600E-015, 35.00000000000000000 ) ) ;
#67 =( LENGTH_UNIT ( ) NAMED_UNIT ( * ) SI_UNIT ( .MILLI., .METRE. ) );
#68 = CARTESIAN_POINT ( 'NONE',  ( 0.0000000000000000000, 0.0000000000000000000, 35.00000000000000000 ) ) ;
#69 = FILL_AREA_STYLE_COLOUR ( '', #125 ) ;
#70 = DIRECTION ( 'NONE',  ( 0.0000000000000000000, 0.0000000000000000000, 1.000000000000000000 ) ) ;
#71 = CARTESIAN_POINT ( 'NONE',  ( 0.0000000000000000000, 0.0000000000000000000, 35.00000000000000000 ) ) ;
#72 = DIRECTION ( 'NONE',  ( 0.0000000000000000000, 0.0000000000000000000, 1.000000000000000000 ) ) ;
#73 = CARTESIAN_POINT ( 'NONE',  ( 13.99999999999999800, 1.714505518806294400E-015, 35.00000000000000000 ) ) ;
#74 = DIRECTION ( 'NONE',  ( -0.0000000000000000000, -0.0000000000000000000, -1.000000000000000000 ) ) ;
#75 = DIRECTION ( 'NONE',  ( 0.0000000000000000000, 0.0000000000000000000, 1.000000000000000000 ) ) ;
#76 = DIRECTION ( 'NONE',  ( 1.000000000000000000, 0.0000000000000000000, 0.0000000000000000000 ) ) ;
#77 = CARTESIAN_POINT ( 'NONE',  ( 0.0000000000000000000, 0.0000000000000000000, -35.00000000000000000 ) ) ;
#78 =( NAMED_UNIT ( * ) PLANE_ANGLE_UNIT ( ) SI_UNIT ( $, .RADIAN. ) );
#79 = SURFACE_SIDE_STYLE ('',( #117 ) ) ;
#80 = CARTESIAN_POINT ( 'NONE',  ( 0.0000000000000000000, 0.0000000000000000000, 0.0000000000000000000 ) ) ;
#81 = DIRECTION ( 'NONE',  ( -1.000000000000000000, 0.0000000000000000000, 0.0000000000000000000 ) ) ;
#82 = DIRECTION ( 'NONE',  ( -0.0000000000000000000, -0.0000000000000000000, -1.000000000000000000 ) ) ;
#83 = CARTESIAN_POINT ( 'NONE',  ( -13.99999999999999800, 0.0000000000000000000, -35.00000000000000000 ) ) ;
#84 = FILL_AREA_STYLE ('',( #69 ) ) ;
#85 =( LENGTH_UNIT ( ) NAMED_UNIT ( * ) SI_UNIT ( .MILLI., .METRE. ) );
#86 = CARTESIAN_POINT ( 'NONE',  ( -13.99999999999999800, 0.0000000000000000000, 35.00000000000000000 ) ) ;
#87 = FILL_AREA_STYLE_COLOUR ( '', #115 ) ;
#88 = DIRECTION ( 'NONE',  ( -1.000000000000000000, 0.0000000000000000000, 0.0000000000000000000 ) ) ;
#89 = DIRECTION ( 'NONE',  ( 1.000000000000000000, 0.0000000000000000000, 0.0000000000000000000 ) ) ;
#90 = FILL_AREA_STYLE ('',( #87 ) ) ;
#91 = CARTESIAN_POINT ( 'NONE',  ( 0.0000000000000000000, 0.0000000000000000000, 35.00000000000000000 ) ) ;
#92 = PLANE ( 'NONE',  #154 ) ;
#93 = CIRCLE ( 'NONE', #161, 13.99999999999999800 ) ;
#94 = CIRCLE ( 'NONE', #150, 13.99999999999999800 ) ;
#95 = CIRCLE ( 'NONE', #149, 15.00000000000000000 ) ;
#96 = PRESENTATION_STYLE_ASSIGNMENT (( #16 ) ) ;
#97 = VECTOR ( 'NONE', #37, 1000.000000000000000 ) ;
#98 = VECTOR ( 'NONE', #28, 1000.000000000000000 ) ;
#99 = CYLINDRICAL_SURFACE ( 'NONE', #159, 15.00000000000000000 ) ;
#100 = LINE ( 'NONE', #44, #123 ) ;
#101 = CIRCLE ( 'NONE', #146, 15.00000000000000000 ) ;
#102 = CIRCLE ( 'NONE', #147, 15.00000000000000000 ) ;
#103 = FACE_OUTER_BOUND ( 'NONE', #211, .T. ) ;
#104 = CIRCLE ( 'NONE', #153, 15.00000000000000000 ) ;
#105 = FACE_OUTER_BOUND ( 'NONE', #178, .T. ) ;
#106 = CIRCLE ( 'NONE', #148, 13.99999999999999800 ) ;
#107 = FACE_OUTER_BOUND ( 'NONE', #182, .T. ) ;
#108 = PRESENTATION_STYLE_ASSIGNMENT (( #27 ) ) ;
#109 = FACE_BOUND ( 'NONE', #203, .T. ) ;
#110 = FACE_OUTER_BOUND ( 'NONE', #206, .T. ) ;
#111 = CYLINDRICAL_SURFACE ( 'NONE', #152, 13.99999999999999800 ) ;
#112 = VERTEX_POINT ( 'NONE', #53 ) ;
#113 = VECTOR ( 'NONE', #42, 1000.000000000000000 ) ;
#114 = CIRCLE ( 'NONE', #151, 13.99999999999999800 ) ;
#115 = COLOUR_RGB ( '',0.6470588235294118000, 0.6196078431372549200, 0.5882352941176470800 ) ;
#116 = CYLINDRICAL_SURFACE ( 'NONE', #158, 13.99999999999999800 ) ;
#117 = SURFACE_STYLE_FILL_AREA ( #84 ) ;
#118 = LINE ( 'NONE', #29, #97 ) ;
#119 = FACE_BOUND ( 'NONE', #204, .T. ) ;
#120 = CYLINDRICAL_SURFACE ( 'NONE', #155, 15.00000000000000000 ) ;
#121 = LINE ( 'NONE', #31, #98 ) ;
#122 = FACE_OUTER_BOUND ( 'NONE', #184, .T. ) ;
#123 = VECTOR ( 'NONE', #25, 1000.000000000000000 ) ;
#124 = VERTEX_POINT ( 'NONE', #83 ) ;
#125 = COLOUR_RGB ( '',0.6470588235294118000, 0.6196078431372549200, 0.5882352941176470800 ) ;
#126 = LINE ( 'NONE', #73, #113 ) ;
#127 = FACE_OUTER_BOUND ( 'NONE', #177, .T. ) ;
#128 = ADVANCED_FACE ( 'NONE', ( #110 ), #99, .T. ) ;
#129 = ADVANCED_FACE ( 'NONE', ( #127 ), #116, .F. ) ;
#130 = ADVANCED_FACE ( 'NONE', ( #103, #109 ), #30, .T. ) ;
#131 = ADVANCED_FACE ( 'NONE', ( #107 ), #120, .T. ) ;
#132 = ADVANCED_FACE ( 'NONE', ( #122, #119 ), #92, .F. ) ;
#133 = ADVANCED_FACE ( 'NONE', ( #105 ), #111, .F. ) ;
#134 = PRODUCT_RELATED_PRODUCT_CATEGORY ( 'part', '', ( #214 ) ) ;
#135 = PRODUCT_DEFINITION_FORMATION_WITH_SPECIFIED_SOURCE ( 'ANY', '', #214, .NOT_KNOWN. ) ;
#136 = EDGE_CURVE ( 'NONE', #112, #180, #104, .T. ) ;
#137 = PRODUCT_DEFINITION ( 'UNKNOWN', '', #135, #6 ) ;
#138 = AXIS2_PLACEMENT_3D ( 'NONE', #80, #18, #17 ) ;
#139 = EDGE_CURVE ( 'NONE', #188, #205, #93, .T. ) ;
#140 = EDGE_CURVE ( 'NONE', #195, #124, #114, .T. ) ;
#141 =( GEOMETRIC_REPRESENTATION_CONTEXT ( 3 ) GLOBAL_UNCERTAINTY_ASSIGNED_CONTEXT ( ( #5 ) ) GLOBAL_UNIT_ASSIGNED_CONTEXT ( ( #85, #14, #15 ) ) REPRESENTATION_CONTEXT ( 'NONE', 'WORKASPACE' ) );
#142 = MECHANICAL_DESIGN_GEOMETRIC_PRESENTATION_REPRESENTATION (  '', ( #144 ), #141 ) ;
#143 = PRESENTATION_LAYER_ASSIGNMENT (  '', '', ( #144 ) ) ;
#144 = STYLED_ITEM ( 'NONE', ( #96 ), #1 ) ;
#145 =( GEOMETRIC_REPRESENTATION_CONTEXT ( 3 ) GLOBAL_UNCERTAINTY_ASSIGNED_CONTEXT ( ( #3 ) ) GLOBAL_UNIT_ASSIGNED_CONTEXT ( ( #21, #19, #22 ) ) REPRESENTATION_CONTEXT ( 'NONE', 'WORKASPACE' ) );
#146 = AXIS2_PLACEMENT_3D ( 'NONE', #23, #8, #89 ) ;
#147 = AXIS2_PLACEMENT_3D ( 'NONE', #36, #34, #33 ) ;
#148 = AXIS2_PLACEMENT_3D ( 'NONE', #41, #40, #39 ) ;
#149 = AXIS2_PLACEMENT_3D ( 'NONE', #46, #45, #43 ) ;
#150 = AXIS2_PLACEMENT_3D ( 'NONE', #77, #72, #47 ) ;
#151 = AXIS2_PLACEMENT_3D ( 'NONE', #61, #70, #76 ) ;
#152 = AXIS2_PLACEMENT_3D ( 'NONE', #56, #52, #20 ) ;
#153 = AXIS2_PLACEMENT_3D ( 'NONE', #63, #62, #64 ) ;
#154 = AXIS2_PLACEMENT_3D ( 'NONE', #59, #54, #38 ) ;
#155 = AXIS2_PLACEMENT_3D ( 'NONE', #55, #74, #51 ) ;
#156 = EDGE_CURVE ( 'NONE', #124, #195, #94, .T. ) ;
#157 = AXIS2_PLACEMENT_3D ( 'NONE', #91, #35, #58 ) ;
#158 = AXIS2_PLACEMENT_3D ( 'NONE', #68, #82, #81 ) ;
#159 = AXIS2_PLACEMENT_3D ( 'NONE', #48, #9, #88 ) ;
#160 = EDGE_CURVE ( 'NONE', #179, #186, #95, .T. ) ;
#161 = AXIS2_PLACEMENT_3D ( 'NONE', #71, #75, #49 ) ;
#162 =( GEOMETRIC_REPRESENTATION_CONTEXT ( 3 ) GLOBAL_UNCERTAINTY_ASSIGNED_CONTEXT ( ( #4 ) ) GLOBAL_UNIT_ASSIGNED_CONTEXT ( ( #67, #78, #10 ) ) REPRESENTATION_CONTEXT ( 'NONE', 'WORKASPACE' ) );
#163 = MECHANICAL_DESIGN_GEOMETRIC_PRESENTATION_REPRESENTATION (  '', ( #165 ), #162 ) ;
#164 = PRESENTATION_LAYER_ASSIGNMENT (  '', '', ( #165 ) ) ;
#165 = STYLED_ITEM ( 'NONE', ( #108 ), #2 ) ;
#166 = EDGE_CURVE ( 'NONE', #205, #188, #106, .T. ) ;
#167 = EDGE_CURVE ( 'NONE', #205, #124, #100, .T. ) ;
#168 = EDGE_CURVE ( 'NONE', #186, #179, #102, .T. ) ;
#169 = EDGE_CURVE ( 'NONE', #188, #195, #126, .T. ) ;
#170 = EDGE_CURVE ( 'NONE', #186, #180, #121, .T. ) ;
#171 = EDGE_CURVE ( 'NONE', #180, #112, #101, .T. ) ;
#172 = EDGE_CURVE ( 'NONE', #179, #112, #118, .T. ) ;
#173 = SHAPE_DEFINITION_REPRESENTATION ( #7, #1 ) ;
#174 = ORIENTED_EDGE ( 'NONE', *, *, #172, .T. ) ;
#175 = ORIENTED_EDGE ( 'NONE', *, *, #172, .F. ) ;
#176 = ORIENTED_EDGE ( 'NONE', *, *, #139, .T. ) ;
#177 = EDGE_LOOP ( 'NONE', ( #212, #176, #199, #191 ) ) ;
#178 = EDGE_LOOP ( 'NONE', ( #192, #185, #183, #181 ) ) ;
#179 = VERTEX_POINT ( 'NONE', #65 ) ;
#180 = VERTEX_POINT ( 'NONE', #24 ) ;
#181 = ORIENTED_EDGE ( 'NONE', *, *, #167, .F. ) ;
#182 = EDGE_LOOP ( 'NONE', ( #210, #189, #174, #187 ) ) ;
#183 = ORIENTED_EDGE ( 'NONE', *, *, #156, .F. ) ;
#184 = EDGE_LOOP ( 'NONE', ( #190, #208 ) ) ;
#185 = ORIENTED_EDGE ( 'NONE', *, *, #169, .T. ) ;
#186 = VERTEX_POINT ( 'NONE', #66 ) ;
#187 = ORIENTED_EDGE ( 'NONE', *, *, #136, .T. ) ;
#188 = VERTEX_POINT ( 'NONE', #60 ) ;
#189 = ORIENTED_EDGE ( 'NONE', *, *, #160, .F. ) ;
#190 = ORIENTED_EDGE ( 'NONE', *, *, #136, .F. ) ;
#191 = ORIENTED_EDGE ( 'NONE', *, *, #140, .F. ) ;
#192 = ORIENTED_EDGE ( 'NONE', *, *, #166, .T. ) ;
#193 = ORIENTED_EDGE ( 'NONE', *, *, #139, .F. ) ;
#194 = ORIENTED_EDGE ( 'NONE', *, *, #168, .F. ) ;
#195 = VERTEX_POINT ( 'NONE', #26 ) ;
#196 = ORIENTED_EDGE ( 'NONE', *, *, #140, .T. ) ;
#197 = ORIENTED_EDGE ( 'NONE', *, *, #168, .T. ) ;
#198 = ORIENTED_EDGE ( 'NONE', *, *, #156, .T. ) ;
#199 = ORIENTED_EDGE ( 'NONE', *, *, #167, .T. ) ;
#200 = ORIENTED_EDGE ( 'NONE', *, *, #171, .T. ) ;
#201 = ORIENTED_EDGE ( 'NONE', *, *, #166, .F. ) ;
#202 = ORIENTED_EDGE ( 'NONE', *, *, #160, .T. ) ;
#203 = EDGE_LOOP ( 'NONE', ( #201, #193 ) ) ;
#204 = EDGE_LOOP ( 'NONE', ( #198, #196 ) ) ;
#205 = VERTEX_POINT ( 'NONE', #86 ) ;
#206 = EDGE_LOOP ( 'NONE', ( #194, #213, #200, #175 ) ) ;
#207 = SURFACE_STYLE_FILL_AREA ( #90 ) ;
#208 = ORIENTED_EDGE ( 'NONE', *, *, #171, .F. ) ;
#209 = CLOSED_SHELL ( 'NONE', ( #133, #128, #130, #132, #131, #129 ) ) ;
#210 = ORIENTED_EDGE ( 'NONE', *, *, #170, .F. ) ;
#211 = EDGE_LOOP ( 'NONE', ( #202, #197 ) ) ;
#212 = ORIENTED_EDGE ( 'NONE', *, *, #169, .F. ) ;
#213 = ORIENTED_EDGE ( 'NONE', *, *, #170, .T. ) ;
#214 = PRODUCT ( '092013e200', '092013e200', '', ( #13 ) ) ;
ENDSEC;
END-ISO-10303-21;
