ISO-10303-21;
HEADER;
FILE_DESCRIPTION (( 'STEP AP214' ),
    '1' );
FILE_NAME ('092013a500.STEP',
    '2012-12-18T09:24:17',
    ( '' ),
    ( '' ),
    'SwSTEP 2.0',
    'SolidWorks 2012',
    '' );
FILE_SCHEMA (( 'AUTOMOTIVE_DESIGN' ));
ENDSEC;

DATA;
#1 = VECTOR ( 'NONE', #125, 1000.000000000000000 ) ;
#2 = VECTOR ( 'NONE', #127, 1000.000000000000000 ) ;
#3 = CYLINDRICAL_SURFACE ( 'NONE', #199, 15.00000000000000000 ) ;
#4 = CIRCLE ( 'NONE', #192, 13.99999999999999800 ) ;
#5 = CYLINDRICAL_SURFACE ( 'NONE', #198, 13.99999999999999800 ) ;
#6 = ORIENTED_EDGE ( 'NONE', *, *, #181, .F. ) ;
#7 = ORIENTED_EDGE ( 'NONE', *, *, #186, .T. ) ;
#8 = ORIENTED_EDGE ( 'NONE', *, *, #176, .F. ) ;
#9 = ORIENTED_EDGE ( 'NONE', *, *, #184, .F. ) ;
#10 = ORIENTED_EDGE ( 'NONE', *, *, #180, .T. ) ;
#11 = ORIENTED_EDGE ( 'NONE', *, *, #185, .T. ) ;
#12 = ORIENTED_EDGE ( 'NONE', *, *, #187, .T. ) ;
#13 = FACE_OUTER_BOUND ( 'NONE', #38, .T. ) ;
#14 = ORIENTED_EDGE ( 'NONE', *, *, #185, .F. ) ;
#15 = VERTEX_POINT ( 'NONE', #90 ) ;
#16 = COLOUR_RGB ( '',0.6470588235294118000, 0.6196078431372549200, 0.5882352941176470800 ) ;
#17 = VERTEX_POINT ( 'NONE', #96 ) ;
#18 = VERTEX_POINT ( 'NONE', #95 ) ;
#19 = ORIENTED_EDGE ( 'NONE', *, *, #183, .T. ) ;
#20 = VERTEX_POINT ( 'NONE', #122 ) ;
#21 = ORIENTED_EDGE ( 'NONE', *, *, #178, .T. ) ;
#22 = ORIENTED_EDGE ( 'NONE', *, *, #184, .T. ) ;
#23 = ORIENTED_EDGE ( 'NONE', *, *, #187, .F. ) ;
#24 = ORIENTED_EDGE ( 'NONE', *, *, #182, .F. ) ;
#25 = VERTEX_POINT ( 'NONE', #107 ) ;
#26 = ORIENTED_EDGE ( 'NONE', *, *, #183, .F. ) ;
#27 = FACE_BOUND ( 'NONE', #52, .T. ) ;
#28 = SURFACE_STYLE_FILL_AREA ( #118 ) ;
#29 = PRESENTATION_STYLE_ASSIGNMENT (( #110 ) ) ;
#30 = CYLINDRICAL_SURFACE ( 'NONE', #194, 15.00000000000000000 ) ;
#31 = FACE_OUTER_BOUND ( 'NONE', #51, .T. ) ;
#32 = CIRCLE ( 'NONE', #196, 15.00000000000000000 ) ;
#33 = FACE_OUTER_BOUND ( 'NONE', #56, .T. ) ;
#34 = FACE_OUTER_BOUND ( 'NONE', #47, .T. ) ;
#35 = FACE_BOUND ( 'NONE', #55, .T. ) ;
#36 = ORIENTED_EDGE ( 'NONE', *, *, #181, .T. ) ;
#37 = ORIENTED_EDGE ( 'NONE', *, *, #180, .F. ) ;
#38 = EDGE_LOOP ( 'NONE', ( #46, #36, #43, #26 ) ) ;
#39 = ORIENTED_EDGE ( 'NONE', *, *, #176, .T. ) ;
#40 = EDGE_LOOP ( 'NONE', ( #6, #9, #19, #7 ) ) ;
#41 = ORIENTED_EDGE ( 'NONE', *, *, #179, .F. ) ;
#42 = CLOSED_SHELL ( 'NONE', ( #165, #163, #162, #164, #167, #166 ) ) ;
#43 = ORIENTED_EDGE ( 'NONE', *, *, #182, .T. ) ;
#44 = ORIENTED_EDGE ( 'NONE', *, *, #178, .F. ) ;
#45 = VERTEX_POINT ( 'NONE', #94 ) ;
#46 = ORIENTED_EDGE ( 'NONE', *, *, #177, .F. ) ;
#47 = EDGE_LOOP ( 'NONE', ( #22, #57 ) ) ;
#48 = EDGE_LOOP ( 'NONE', ( #8, #11, #21, #23 ) ) ;
#49 = ORIENTED_EDGE ( 'NONE', *, *, #179, .T. ) ;
#50 = VERTEX_POINT ( 'NONE', #120 ) ;
#51 = EDGE_LOOP ( 'NONE', ( #53, #24 ) ) ;
#52 = EDGE_LOOP ( 'NONE', ( #41, #14 ) ) ;
#53 = ORIENTED_EDGE ( 'NONE', *, *, #186, .F. ) ;
#54 = VERTEX_POINT ( 'NONE', #109 ) ;
#55 = EDGE_LOOP ( 'NONE', ( #10, #12 ) ) ;
#56 = EDGE_LOOP ( 'NONE', ( #49, #39, #37, #44 ) ) ;
#57 = ORIENTED_EDGE ( 'NONE', *, *, #177, .T. ) ;
#58 = CIRCLE ( 'NONE', #201, 15.00000000000000000 ) ;
#59 = LINE ( 'NONE', #115, #60 ) ;
#60 = VECTOR ( 'NONE', #74, 1000.000000000000000 ) ;
#61 = CIRCLE ( 'NONE', #203, 13.99999999999999800 ) ;
#62 = CIRCLE ( 'NONE', #202, 15.00000000000000000 ) ;
#63 = CIRCLE ( 'NONE', #204, 15.00000000000000000 ) ;
#64 = CIRCLE ( 'NONE', #205, 13.99999999999999800 ) ;
#65 = SURFACE_STYLE_FILL_AREA ( #143 ) ;
#66 = COLOUR_RGB ( '',0.6470588235294118000, 0.6196078431372549200, 0.5882352941176470800 ) ;
#67 = PRESENTATION_STYLE_ASSIGNMENT (( #145 ) ) ;
#68 = SHAPE_DEFINITION_REPRESENTATION ( #160, #157 ) ;
#69 = DIRECTION ( 'NONE',  ( 0.0000000000000000000, 0.0000000000000000000, 1.000000000000000000 ) ) ;
#70 = DIRECTION ( 'NONE',  ( 1.000000000000000000, 0.0000000000000000000, 0.0000000000000000000 ) ) ;
#71 = CARTESIAN_POINT ( 'NONE',  ( 0.0000000000000000000, 0.0000000000000000000, 250.0000000000000000 ) ) ;
#72 = FILL_AREA_STYLE_COLOUR ( '', #66 ) ;
#73 = CARTESIAN_POINT ( 'NONE',  ( 0.0000000000000000000, 0.0000000000000000000, 250.0000000000000000 ) ) ;
#74 = DIRECTION ( 'NONE',  ( -0.0000000000000000000, -0.0000000000000000000, -1.000000000000000000 ) ) ;
#75 = DIRECTION ( 'NONE',  ( -0.0000000000000000000, -0.0000000000000000000, -1.000000000000000000 ) ) ;
#76 = CARTESIAN_POINT ( 'NONE',  ( 0.0000000000000000000, 0.0000000000000000000, 250.0000000000000000 ) ) ;
#77 = DIRECTION ( 'NONE',  ( -1.000000000000000000, 0.0000000000000000000, 0.0000000000000000000 ) ) ;
#78 = CARTESIAN_POINT ( 'NONE',  ( 0.0000000000000000000, 0.0000000000000000000, 250.0000000000000000 ) ) ;
#79 = DIRECTION ( 'NONE',  ( -0.0000000000000000000, -0.0000000000000000000, -1.000000000000000000 ) ) ;
#80 = DIRECTION ( 'NONE',  ( 0.0000000000000000000, 0.0000000000000000000, 1.000000000000000000 ) ) ;
#81 = PLANE ( 'NONE',  #195 ) ;
#82 = CARTESIAN_POINT ( 'NONE',  ( 0.0000000000000000000, 0.0000000000000000000, -250.0000000000000000 ) ) ;
#83 = DIRECTION ( 'NONE',  ( 1.000000000000000000, 0.0000000000000000000, -0.0000000000000000000 ) ) ;
#84 = DIRECTION ( 'NONE',  ( -1.000000000000000000, 0.0000000000000000000, 0.0000000000000000000 ) ) ;
#85 = CARTESIAN_POINT ( 'NONE',  ( 0.0000000000000000000, 0.0000000000000000000, -250.0000000000000000 ) ) ;
#86 = CARTESIAN_POINT ( 'NONE',  ( 0.0000000000000000000, 0.0000000000000000000, 0.0000000000000000000 ) ) ;
#87 = DIRECTION ( 'NONE',  ( 1.000000000000000000, 0.0000000000000000000, 0.0000000000000000000 ) ) ;
#88 = DIRECTION ( 'NONE',  ( 0.0000000000000000000, 0.0000000000000000000, 1.000000000000000000 ) ) ;
#89 = DIRECTION ( 'NONE',  ( -0.0000000000000000000, -0.0000000000000000000, -1.000000000000000000 ) ) ;
#90 = CARTESIAN_POINT ( 'NONE',  ( 13.99999999999999800, 1.714505518806294400E-015, -250.0000000000000000 ) ) ;
#91 = DIRECTION ( 'NONE',  ( -0.0000000000000000000, -0.0000000000000000000, -1.000000000000000000 ) ) ;
#92 = CARTESIAN_POINT ( 'NONE',  ( -13.99999999999999800, 0.0000000000000000000, 250.0000000000000000 ) ) ;
#93 = CARTESIAN_POINT ( 'NONE',  ( 0.0000000000000000000, 0.0000000000000000000, 250.0000000000000000 ) ) ;
#94 = CARTESIAN_POINT ( 'NONE',  ( 15.00000000000000000, 1.836970198721029600E-015, -250.0000000000000000 ) ) ;
#95 = CARTESIAN_POINT ( 'NONE',  ( -13.99999999999999800, 0.0000000000000000000, -250.0000000000000000 ) ) ;
#96 = CARTESIAN_POINT ( 'NONE',  ( 13.99999999999999800, 1.714505518806294400E-015, 250.0000000000000000 ) ) ;
#97 = CARTESIAN_POINT ( 'NONE',  ( 0.0000000000000000000, 0.0000000000000000000, -250.0000000000000000 ) ) ;
#98 = DIRECTION ( 'NONE',  ( -1.000000000000000000, 0.0000000000000000000, 0.0000000000000000000 ) ) ;
#99 =( NAMED_UNIT ( * ) SI_UNIT ( $, .STERADIAN. ) SOLID_ANGLE_UNIT ( ) );
#100 = CARTESIAN_POINT ( 'NONE',  ( 0.0000000000000000000, 0.0000000000000000000, 250.0000000000000000 ) ) ;
#101 = PLANE ( 'NONE',  #193 ) ;
#102 = DIRECTION ( 'NONE',  ( 0.0000000000000000000, 0.0000000000000000000, 1.000000000000000000 ) ) ;
#103 = DIRECTION ( 'NONE',  ( 1.000000000000000000, 0.0000000000000000000, -0.0000000000000000000 ) ) ;
#104 = DIRECTION ( 'NONE',  ( 0.0000000000000000000, 0.0000000000000000000, 1.000000000000000000 ) ) ;
#105 = DIRECTION ( 'NONE',  ( 0.0000000000000000000, 0.0000000000000000000, 1.000000000000000000 ) ) ;
#106 = DIRECTION ( 'NONE',  ( 1.000000000000000000, 0.0000000000000000000, 0.0000000000000000000 ) ) ;
#107 = CARTESIAN_POINT ( 'NONE',  ( -13.99999999999999800, 0.0000000000000000000, 250.0000000000000000 ) ) ;
#108 = DIRECTION ( 'NONE',  ( 0.0000000000000000000, 0.0000000000000000000, 1.000000000000000000 ) ) ;
#109 = CARTESIAN_POINT ( 'NONE',  ( -15.00000000000000000, 0.0000000000000000000, -250.0000000000000000 ) ) ;
#110 = SURFACE_STYLE_USAGE ( .BOTH. , #121 ) ;
#111 = CARTESIAN_POINT ( 'NONE',  ( 0.0000000000000000000, 0.0000000000000000000, 250.0000000000000000 ) ) ;
#112 = CARTESIAN_POINT ( 'NONE',  ( 15.00000000000000000, 1.836970198721029600E-015, 250.0000000000000000 ) ) ;
#113 = DIRECTION ( 'NONE',  ( 0.0000000000000000000, 0.0000000000000000000, 1.000000000000000000 ) ) ;
#114 = DIRECTION ( 'NONE',  ( 1.000000000000000000, 0.0000000000000000000, 0.0000000000000000000 ) ) ;
#115 = CARTESIAN_POINT ( 'NONE',  ( -15.00000000000000000, 0.0000000000000000000, 250.0000000000000000 ) ) ;
#116 =( NAMED_UNIT ( * ) PLANE_ANGLE_UNIT ( ) SI_UNIT ( $, .RADIAN. ) );
#117 =( LENGTH_UNIT ( ) NAMED_UNIT ( * ) SI_UNIT ( .MILLI., .METRE. ) );
#118 = FILL_AREA_STYLE ('',( #123 ) ) ;
#119 = DIRECTION ( 'NONE',  ( -1.000000000000000000, 0.0000000000000000000, 0.0000000000000000000 ) ) ;
#120 = CARTESIAN_POINT ( 'NONE',  ( -15.00000000000000000, 0.0000000000000000000, 250.0000000000000000 ) ) ;
#121 = SURFACE_SIDE_STYLE ('',( #28 ) ) ;
#122 = CARTESIAN_POINT ( 'NONE',  ( 15.00000000000000000, 1.836970198721029600E-015, 250.0000000000000000 ) ) ;
#123 = FILL_AREA_STYLE_COLOUR ( '', #16 ) ;
#124 = CARTESIAN_POINT ( 'NONE',  ( 0.0000000000000000000, 0.0000000000000000000, -250.0000000000000000 ) ) ;
#125 = DIRECTION ( 'NONE',  ( -0.0000000000000000000, -0.0000000000000000000, -1.000000000000000000 ) ) ;
#126 = CARTESIAN_POINT ( 'NONE',  ( 13.99999999999999800, 1.714505518806294400E-015, 250.0000000000000000 ) ) ;
#127 = DIRECTION ( 'NONE',  ( -0.0000000000000000000, -0.0000000000000000000, -1.000000000000000000 ) ) ;
#128 = CARTESIAN_POINT ( 'NONE',  ( 0.0000000000000000000, 0.0000000000000000000, 250.0000000000000000 ) ) ;
#129 = DIRECTION ( 'NONE',  ( 1.000000000000000000, 0.0000000000000000000, 0.0000000000000000000 ) ) ;
#130 = DIRECTION ( 'NONE',  ( -0.0000000000000000000, -0.0000000000000000000, -1.000000000000000000 ) ) ;
#131 = DIRECTION ( 'NONE',  ( 1.000000000000000000, 0.0000000000000000000, 0.0000000000000000000 ) ) ;
#132 = CARTESIAN_POINT ( 'NONE',  ( 0.0000000000000000000, 0.0000000000000000000, 250.0000000000000000 ) ) ;
#133 = DIRECTION ( 'NONE',  ( 0.0000000000000000000, 0.0000000000000000000, 1.000000000000000000 ) ) ;
#134 =( NAMED_UNIT ( * ) PLANE_ANGLE_UNIT ( ) SI_UNIT ( $, .RADIAN. ) );
#135 = DIRECTION ( 'NONE',  ( 1.000000000000000000, 0.0000000000000000000, 0.0000000000000000000 ) ) ;
#136 =( LENGTH_UNIT ( ) NAMED_UNIT ( * ) SI_UNIT ( .MILLI., .METRE. ) );
#137 = DIRECTION ( 'NONE',  ( 0.0000000000000000000, 0.0000000000000000000, 1.000000000000000000 ) ) ;
#138 = CARTESIAN_POINT ( 'NONE',  ( 0.0000000000000000000, 0.0000000000000000000, -250.0000000000000000 ) ) ;
#139 = DIRECTION ( 'NONE',  ( 1.000000000000000000, 0.0000000000000000000, 0.0000000000000000000 ) ) ;
#140 =( NAMED_UNIT ( * ) SI_UNIT ( $, .STERADIAN. ) SOLID_ANGLE_UNIT ( ) );
#141 = APPLICATION_PROTOCOL_DEFINITION ( 'draft international standard', 'automotive_design', 1998, #142 ) ;
#142 = APPLICATION_CONTEXT ( 'automotive_design' ) ;
#143 = FILL_AREA_STYLE ('',( #72 ) ) ;
#144 = SURFACE_SIDE_STYLE ('',( #65 ) ) ;
#145 = SURFACE_STYLE_USAGE ( .BOTH. , #144 ) ;
#146 =( LENGTH_UNIT ( ) NAMED_UNIT ( * ) SI_UNIT ( .MILLI., .METRE. ) );
#147 =( NAMED_UNIT ( * ) PLANE_ANGLE_UNIT ( ) SI_UNIT ( $, .RADIAN. ) );
#148 =( NAMED_UNIT ( * ) SI_UNIT ( $, .STERADIAN. ) SOLID_ANGLE_UNIT ( ) );
#149 = DIRECTION ( 'NONE',  ( 0.0000000000000000000, 0.0000000000000000000, 1.000000000000000000 ) ) ;
#150 = DIRECTION ( 'NONE',  ( 1.000000000000000000, 0.0000000000000000000, 0.0000000000000000000 ) ) ;
#151 = PRODUCT_CONTEXT ( 'NONE', #142, 'mechanical' ) ;
#152 = APPLICATION_CONTEXT ( 'automotive_design' ) ;
#153 = APPLICATION_PROTOCOL_DEFINITION ( 'draft international standard', 'automotive_design', 1998, #152 ) ;
#154 = VECTOR ( 'NONE', #91, 1000.000000000000000 ) ;
#155 = UNCERTAINTY_MEASURE_WITH_UNIT (LENGTH_MEASURE( 1.000000000000000100E-005 ), #146, 'distance_accuracy_value', 'NONE');
#156 = UNCERTAINTY_MEASURE_WITH_UNIT (LENGTH_MEASURE( 1.000000000000000100E-005 ), #136, 'distance_accuracy_value', 'NONE');
#157 = ADVANCED_BREP_SHAPE_REPRESENTATION ( '092013a500', ( #159, #211 ), #206 ) ;
#158 = UNCERTAINTY_MEASURE_WITH_UNIT (LENGTH_MEASURE( 1.000000000000000100E-005 ), #117, 'distance_accuracy_value', 'NONE');
#159 = MANIFOLD_SOLID_BREP ( 'Linear austragen1', #42 ) ;
#160 = PRODUCT_DEFINITION_SHAPE ( 'NONE', 'NONE',  #212 ) ;
#161 = PRODUCT_DEFINITION_CONTEXT ( 'detailed design', #152, 'design' ) ;
#162 = ADVANCED_FACE ( 'NONE', ( #34, #27 ), #101, .T. ) ;
#163 = ADVANCED_FACE ( 'NONE', ( #13 ), #30, .T. ) ;
#164 = ADVANCED_FACE ( 'NONE', ( #31, #35 ), #81, .F. ) ;
#165 = ADVANCED_FACE ( 'NONE', ( #33 ), #174, .F. ) ;
#166 = ADVANCED_FACE ( 'NONE', ( #170 ), #5, .F. ) ;
#167 = ADVANCED_FACE ( 'NONE', ( #171 ), #3, .T. ) ;
#168 = LINE ( 'NONE', #112, #154 ) ;
#169 = LINE ( 'NONE', #92, #1 ) ;
#170 = FACE_OUTER_BOUND ( 'NONE', #48, .T. ) ;
#171 = FACE_OUTER_BOUND ( 'NONE', #40, .T. ) ;
#172 = LINE ( 'NONE', #126, #2 ) ;
#173 = CIRCLE ( 'NONE', #200, 13.99999999999999800 ) ;
#174 = CYLINDRICAL_SURFACE ( 'NONE', #197, 13.99999999999999800 ) ;
#175 = PRODUCT ( '092013a500', '092013a500', '', ( #151 ) ) ;
#176 = EDGE_CURVE ( 'NONE', #17, #15, #172, .T. ) ;
#177 = EDGE_CURVE ( 'NONE', #20, #50, #32, .T. ) ;
#178 = EDGE_CURVE ( 'NONE', #25, #18, #169, .T. ) ;
#179 = EDGE_CURVE ( 'NONE', #25, #17, #4, .T. ) ;
#180 = EDGE_CURVE ( 'NONE', #18, #15, #173, .T. ) ;
#181 = EDGE_CURVE ( 'NONE', #20, #45, #168, .T. ) ;
#182 = EDGE_CURVE ( 'NONE', #45, #54, #58, .T. ) ;
#183 = EDGE_CURVE ( 'NONE', #50, #54, #59, .T. ) ;
#184 = EDGE_CURVE ( 'NONE', #50, #20, #62, .T. ) ;
#185 = EDGE_CURVE ( 'NONE', #17, #25, #61, .T. ) ;
#186 = EDGE_CURVE ( 'NONE', #54, #45, #63, .T. ) ;
#187 = EDGE_CURVE ( 'NONE', #15, #18, #64, .T. ) ;
#188 = STYLED_ITEM ( 'NONE', ( #29 ), #159 ) ;
#189 = PRESENTATION_LAYER_ASSIGNMENT (  '', '', ( #188 ) ) ;
#190 = MECHANICAL_DESIGN_GEOMETRIC_PRESENTATION_REPRESENTATION (  '', ( #188 ), #191 ) ;
#191 =( GEOMETRIC_REPRESENTATION_CONTEXT ( 3 ) GLOBAL_UNCERTAINTY_ASSIGNED_CONTEXT ( ( #158 ) ) GLOBAL_UNIT_ASSIGNED_CONTEXT ( ( #117, #116, #99 ) ) REPRESENTATION_CONTEXT ( 'NONE', 'WORKASPACE' ) );
#192 = AXIS2_PLACEMENT_3D ( 'NONE', #93, #105, #106 ) ;
#193 = AXIS2_PLACEMENT_3D ( 'NONE', #100, #102, #103 ) ;
#194 = AXIS2_PLACEMENT_3D ( 'NONE', #78, #89, #119 ) ;
#195 = AXIS2_PLACEMENT_3D ( 'NONE', #82, #80, #83 ) ;
#196 = AXIS2_PLACEMENT_3D ( 'NONE', #111, #113, #114 ) ;
#197 = AXIS2_PLACEMENT_3D ( 'NONE', #128, #79, #84 ) ;
#198 = AXIS2_PLACEMENT_3D ( 'NONE', #132, #130, #98 ) ;
#199 = AXIS2_PLACEMENT_3D ( 'NONE', #76, #75, #77 ) ;
#200 = AXIS2_PLACEMENT_3D ( 'NONE', #124, #108, #131 ) ;
#201 = AXIS2_PLACEMENT_3D ( 'NONE', #97, #104, #129 ) ;
#202 = AXIS2_PLACEMENT_3D ( 'NONE', #73, #69, #70 ) ;
#203 = AXIS2_PLACEMENT_3D ( 'NONE', #71, #88, #87 ) ;
#204 = AXIS2_PLACEMENT_3D ( 'NONE', #85, #137, #135 ) ;
#205 = AXIS2_PLACEMENT_3D ( 'NONE', #138, #133, #139 ) ;
#206 =( GEOMETRIC_REPRESENTATION_CONTEXT ( 3 ) GLOBAL_UNCERTAINTY_ASSIGNED_CONTEXT ( ( #156 ) ) GLOBAL_UNIT_ASSIGNED_CONTEXT ( ( #136, #134, #140 ) ) REPRESENTATION_CONTEXT ( 'NONE', 'WORKASPACE' ) );
#207 = STYLED_ITEM ( 'NONE', ( #67 ), #157 ) ;
#208 = PRESENTATION_LAYER_ASSIGNMENT (  '', '', ( #207 ) ) ;
#209 = MECHANICAL_DESIGN_GEOMETRIC_PRESENTATION_REPRESENTATION (  '', ( #207 ), #210 ) ;
#210 =( GEOMETRIC_REPRESENTATION_CONTEXT ( 3 ) GLOBAL_UNCERTAINTY_ASSIGNED_CONTEXT ( ( #155 ) ) GLOBAL_UNIT_ASSIGNED_CONTEXT ( ( #146, #147, #148 ) ) REPRESENTATION_CONTEXT ( 'NONE', 'WORKASPACE' ) );
#211 = AXIS2_PLACEMENT_3D ( 'NONE', #86, #149, #150 ) ;
#212 = PRODUCT_DEFINITION ( 'UNKNOWN', '', #213, #161 ) ;
#213 = PRODUCT_DEFINITION_FORMATION_WITH_SPECIFIED_SOURCE ( 'ANY', '', #175, .NOT_KNOWN. ) ;
#214 = PRODUCT_RELATED_PRODUCT_CATEGORY ( 'part', '', ( #175 ) ) ;
ENDSEC;
END-ISO-10303-21;
