ISO-10303-21;
HEADER;
FILE_DESCRIPTION (( 'STEP AP214' ),
    '1' );
FILE_NAME ('092013a300.STEP',
    '2012-11-13T12:27:15',
    ( '' ),
    ( '' ),
    'SwSTEP 2.0',
    'SolidWorks 2012',
    '' );
FILE_SCHEMA (( 'AUTOMOTIVE_DESIGN' ));
ENDSEC;

DATA;
#1 = ADVANCED_BREP_SHAPE_REPRESENTATION ( '092013a300', ( #5, #135 ), #129 ) ;
#2 = UNCERTAINTY_MEASURE_WITH_UNIT (LENGTH_MEASURE( 1.000000000000000100E-005 ), #63, 'distance_accuracy_value', 'NONE');
#3 = UNCERTAINTY_MEASURE_WITH_UNIT (LENGTH_MEASURE( 1.000000000000000100E-005 ), #24, 'distance_accuracy_value', 'NONE');
#4 = UNCERTAINTY_MEASURE_WITH_UNIT (LENGTH_MEASURE( 1.000000000000000100E-005 ), #66, 'distance_accuracy_value', 'NONE');
#5 = MANIFOLD_SOLID_BREP ( 'Linear austragen1', #195 ) ;
#6 = ADVANCED_FACE ( 'NONE', ( #145, #142 ), #28, .F. ) ;
#7 = ADVANCED_FACE ( 'NONE', ( #141, #193 ), #30, .T. ) ;
#8 = ADVANCED_FACE ( 'NONE', ( #136 ), #184, .T. ) ;
#9 = ADVANCED_FACE ( 'NONE', ( #140 ), #176, .F. ) ;
#10 = ADVANCED_FACE ( 'NONE', ( #138 ), #143, .F. ) ;
#11 = ADVANCED_FACE ( 'NONE', ( #202 ), #189, .T. ) ;
#12 = SURFACE_SIDE_STYLE ('',( #174 ) ) ;
#13 = DIRECTION ( 'NONE',  ( 1.000000000000000000, 0.0000000000000000000, 0.0000000000000000000 ) ) ;
#14 = CARTESIAN_POINT ( 'NONE',  ( 15.00000000000000000, 1.836970198721029600E-015, 150.0000000000000000 ) ) ;
#15 = CARTESIAN_POINT ( 'NONE',  ( -13.99999999999999800, 0.0000000000000000000, 150.0000000000000000 ) ) ;
#16 = CARTESIAN_POINT ( 'NONE',  ( -15.00000000000000000, 0.0000000000000000000, 150.0000000000000000 ) ) ;
#17 = SURFACE_STYLE_USAGE ( .BOTH. , #38 ) ;
#18 = CARTESIAN_POINT ( 'NONE',  ( 13.99999999999999800, 1.714505518806294400E-015, -150.0000000000000000 ) ) ;
#19 = FILL_AREA_STYLE_COLOUR ( '', #203 ) ;
#20 = DIRECTION ( 'NONE',  ( 0.0000000000000000000, 0.0000000000000000000, 1.000000000000000000 ) ) ;
#21 = CARTESIAN_POINT ( 'NONE',  ( 0.0000000000000000000, 0.0000000000000000000, 0.0000000000000000000 ) ) ;
#22 =( NAMED_UNIT ( * ) SI_UNIT ( $, .STERADIAN. ) SOLID_ANGLE_UNIT ( ) );
#23 =( NAMED_UNIT ( * ) PLANE_ANGLE_UNIT ( ) SI_UNIT ( $, .RADIAN. ) );
#24 =( LENGTH_UNIT ( ) NAMED_UNIT ( * ) SI_UNIT ( .MILLI., .METRE. ) );
#25 = CARTESIAN_POINT ( 'NONE',  ( 0.0000000000000000000, 0.0000000000000000000, -150.0000000000000000 ) ) ;
#26 =( NAMED_UNIT ( * ) PLANE_ANGLE_UNIT ( ) SI_UNIT ( $, .RADIAN. ) );
#27 = CARTESIAN_POINT ( 'NONE',  ( 0.0000000000000000000, 0.0000000000000000000, 150.0000000000000000 ) ) ;
#28 = PLANE ( 'NONE',  #109 ) ;
#29 = DIRECTION ( 'NONE',  ( -0.0000000000000000000, -0.0000000000000000000, -1.000000000000000000 ) ) ;
#30 = PLANE ( 'NONE',  #107 ) ;
#31 = DIRECTION ( 'NONE',  ( -1.000000000000000000, 0.0000000000000000000, 0.0000000000000000000 ) ) ;
#32 = DIRECTION ( 'NONE',  ( 1.000000000000000000, 0.0000000000000000000, -0.0000000000000000000 ) ) ;
#33 = DIRECTION ( 'NONE',  ( -1.000000000000000000, 0.0000000000000000000, 0.0000000000000000000 ) ) ;
#34 = CARTESIAN_POINT ( 'NONE',  ( 0.0000000000000000000, 0.0000000000000000000, 150.0000000000000000 ) ) ;
#35 = DIRECTION ( 'NONE',  ( -0.0000000000000000000, -0.0000000000000000000, -1.000000000000000000 ) ) ;
#36 = DIRECTION ( 'NONE',  ( -1.000000000000000000, 0.0000000000000000000, 0.0000000000000000000 ) ) ;
#37 = CARTESIAN_POINT ( 'NONE',  ( 0.0000000000000000000, 0.0000000000000000000, 150.0000000000000000 ) ) ;
#38 = SURFACE_SIDE_STYLE ('',( #188 ) ) ;
#39 = DIRECTION ( 'NONE',  ( 1.000000000000000000, 0.0000000000000000000, 0.0000000000000000000 ) ) ;
#40 = CARTESIAN_POINT ( 'NONE',  ( 0.0000000000000000000, 0.0000000000000000000, 150.0000000000000000 ) ) ;
#41 = DIRECTION ( 'NONE',  ( -1.000000000000000000, 0.0000000000000000000, 0.0000000000000000000 ) ) ;
#42 = CARTESIAN_POINT ( 'NONE',  ( 15.00000000000000000, 1.836970198721029600E-015, 150.0000000000000000 ) ) ;
#43 = CARTESIAN_POINT ( 'NONE',  ( 0.0000000000000000000, 0.0000000000000000000, 150.0000000000000000 ) ) ;
#44 = DIRECTION ( 'NONE',  ( 0.0000000000000000000, 0.0000000000000000000, 1.000000000000000000 ) ) ;
#45 = DIRECTION ( 'NONE',  ( -0.0000000000000000000, -0.0000000000000000000, -1.000000000000000000 ) ) ;
#46 = DIRECTION ( 'NONE',  ( 0.0000000000000000000, 0.0000000000000000000, 1.000000000000000000 ) ) ;
#47 = CARTESIAN_POINT ( 'NONE',  ( 0.0000000000000000000, 0.0000000000000000000, 150.0000000000000000 ) ) ;
#48 = DIRECTION ( 'NONE',  ( -0.0000000000000000000, -0.0000000000000000000, -1.000000000000000000 ) ) ;
#49 = CARTESIAN_POINT ( 'NONE',  ( -13.99999999999999800, 0.0000000000000000000, 150.0000000000000000 ) ) ;
#50 =( NAMED_UNIT ( * ) SI_UNIT ( $, .STERADIAN. ) SOLID_ANGLE_UNIT ( ) );
#51 = DIRECTION ( 'NONE',  ( -0.0000000000000000000, -0.0000000000000000000, -1.000000000000000000 ) ) ;
#52 = APPLICATION_PROTOCOL_DEFINITION ( 'draft international standard', 'automotive_design', 1998, #59 ) ;
#53 = DIRECTION ( 'NONE',  ( -0.0000000000000000000, -0.0000000000000000000, -1.000000000000000000 ) ) ;
#54 = DIRECTION ( 'NONE',  ( -0.0000000000000000000, -0.0000000000000000000, -1.000000000000000000 ) ) ;
#55 =( NAMED_UNIT ( * ) SI_UNIT ( $, .STERADIAN. ) SOLID_ANGLE_UNIT ( ) );
#56 = DIRECTION ( 'NONE',  ( 1.000000000000000000, 0.0000000000000000000, 0.0000000000000000000 ) ) ;
#57 = CARTESIAN_POINT ( 'NONE',  ( -15.00000000000000000, 0.0000000000000000000, 150.0000000000000000 ) ) ;
#58 = DIRECTION ( 'NONE',  ( 0.0000000000000000000, 0.0000000000000000000, 1.000000000000000000 ) ) ;
#59 = APPLICATION_CONTEXT ( 'automotive_design' ) ;
#60 = APPLICATION_PROTOCOL_DEFINITION ( 'draft international standard', 'automotive_design', 1998, #64 ) ;
#61 = FILL_AREA_STYLE ('',( #19 ) ) ;
#62 = SURFACE_STYLE_USAGE ( .BOTH. , #12 ) ;
#63 =( LENGTH_UNIT ( ) NAMED_UNIT ( * ) SI_UNIT ( .MILLI., .METRE. ) );
#64 = APPLICATION_CONTEXT ( 'automotive_design' ) ;
#65 = CARTESIAN_POINT ( 'NONE',  ( -15.00000000000000000, 0.0000000000000000000, -150.0000000000000000 ) ) ;
#66 =( LENGTH_UNIT ( ) NAMED_UNIT ( * ) SI_UNIT ( .MILLI., .METRE. ) );
#67 = CARTESIAN_POINT ( 'NONE',  ( 0.0000000000000000000, 0.0000000000000000000, -150.0000000000000000 ) ) ;
#68 =( NAMED_UNIT ( * ) PLANE_ANGLE_UNIT ( ) SI_UNIT ( $, .RADIAN. ) );
#69 = DIRECTION ( 'NONE',  ( 0.0000000000000000000, 0.0000000000000000000, 1.000000000000000000 ) ) ;
#70 = FILL_AREA_STYLE_COLOUR ( '', #152 ) ;
#71 = DIRECTION ( 'NONE',  ( 1.000000000000000000, 0.0000000000000000000, 0.0000000000000000000 ) ) ;
#72 = CARTESIAN_POINT ( 'NONE',  ( 13.99999999999999800, 1.714505518806294400E-015, 150.0000000000000000 ) ) ;
#73 = DIRECTION ( 'NONE',  ( -0.0000000000000000000, -0.0000000000000000000, -1.000000000000000000 ) ) ;
#74 = CARTESIAN_POINT ( 'NONE',  ( 0.0000000000000000000, 0.0000000000000000000, 150.0000000000000000 ) ) ;
#75 = DIRECTION ( 'NONE',  ( 0.0000000000000000000, 0.0000000000000000000, 1.000000000000000000 ) ) ;
#76 = DIRECTION ( 'NONE',  ( 1.000000000000000000, 0.0000000000000000000, 0.0000000000000000000 ) ) ;
#77 = CARTESIAN_POINT ( 'NONE',  ( 0.0000000000000000000, 0.0000000000000000000, 150.0000000000000000 ) ) ;
#78 = DIRECTION ( 'NONE',  ( 0.0000000000000000000, 0.0000000000000000000, 1.000000000000000000 ) ) ;
#79 = DIRECTION ( 'NONE',  ( 1.000000000000000000, 0.0000000000000000000, 0.0000000000000000000 ) ) ;
#80 = PRODUCT_CONTEXT ( 'NONE', #59, 'mechanical' ) ;
#81 = CARTESIAN_POINT ( 'NONE',  ( 0.0000000000000000000, 0.0000000000000000000, -150.0000000000000000 ) ) ;
#82 = CARTESIAN_POINT ( 'NONE',  ( 0.0000000000000000000, 0.0000000000000000000, -150.0000000000000000 ) ) ;
#83 = DIRECTION ( 'NONE',  ( 0.0000000000000000000, 0.0000000000000000000, 1.000000000000000000 ) ) ;
#84 = DIRECTION ( 'NONE',  ( 1.000000000000000000, 0.0000000000000000000, 0.0000000000000000000 ) ) ;
#85 = CARTESIAN_POINT ( 'NONE',  ( 13.99999999999999800, 1.714505518806294400E-015, 150.0000000000000000 ) ) ;
#86 = FILL_AREA_STYLE ('',( #70 ) ) ;
#87 = DIRECTION ( 'NONE',  ( 1.000000000000000000, 0.0000000000000000000, -0.0000000000000000000 ) ) ;
#88 = CARTESIAN_POINT ( 'NONE',  ( 0.0000000000000000000, 0.0000000000000000000, -150.0000000000000000 ) ) ;
#89 = DIRECTION ( 'NONE',  ( 0.0000000000000000000, 0.0000000000000000000, 1.000000000000000000 ) ) ;
#90 = DIRECTION ( 'NONE',  ( 1.000000000000000000, 0.0000000000000000000, 0.0000000000000000000 ) ) ;
#91 = CARTESIAN_POINT ( 'NONE',  ( 15.00000000000000000, 1.836970198721029600E-015, -150.0000000000000000 ) ) ;
#92 = DIRECTION ( 'NONE',  ( 0.0000000000000000000, 0.0000000000000000000, 1.000000000000000000 ) ) ;
#93 = CARTESIAN_POINT ( 'NONE',  ( -13.99999999999999800, 0.0000000000000000000, -150.0000000000000000 ) ) ;
#94 = CARTESIAN_POINT ( 'NONE',  ( 0.0000000000000000000, 0.0000000000000000000, 150.0000000000000000 ) ) ;
#95 = DIRECTION ( 'NONE',  ( 0.0000000000000000000, 0.0000000000000000000, 1.000000000000000000 ) ) ;
#96 = DIRECTION ( 'NONE',  ( 1.000000000000000000, 0.0000000000000000000, 0.0000000000000000000 ) ) ;
#97 = AXIS2_PLACEMENT_3D ( 'NONE', #88, #89, #90 ) ;
#98 = AXIS2_PLACEMENT_3D ( 'NONE', #82, #83, #84 ) ;
#99 = AXIS2_PLACEMENT_3D ( 'NONE', #77, #78, #79 ) ;
#100 = AXIS2_PLACEMENT_3D ( 'NONE', #74, #75, #76 ) ;
#101 = AXIS2_PLACEMENT_3D ( 'NONE', #37, #53, #41 ) ;
#102 = AXIS2_PLACEMENT_3D ( 'NONE', #40, #54, #36 ) ;
#103 = AXIS2_PLACEMENT_3D ( 'NONE', #34, #35, #33 ) ;
#104 = AXIS2_PLACEMENT_3D ( 'NONE', #27, #29, #31 ) ;
#105 = AXIS2_PLACEMENT_3D ( 'NONE', #67, #69, #71 ) ;
#106 = AXIS2_PLACEMENT_3D ( 'NONE', #81, #20, #13 ) ;
#107 = AXIS2_PLACEMENT_3D ( 'NONE', #47, #92, #32 ) ;
#108 = AXIS2_PLACEMENT_3D ( 'NONE', #43, #44, #56 ) ;
#109 = AXIS2_PLACEMENT_3D ( 'NONE', #25, #46, #87 ) ;
#110 =( GEOMETRIC_REPRESENTATION_CONTEXT ( 3 ) GLOBAL_UNCERTAINTY_ASSIGNED_CONTEXT ( ( #2 ) ) GLOBAL_UNIT_ASSIGNED_CONTEXT ( ( #63, #23, #22 ) ) REPRESENTATION_CONTEXT ( 'NONE', 'WORKASPACE' ) );
#111 = MECHANICAL_DESIGN_GEOMETRIC_PRESENTATION_REPRESENTATION (  '', ( #117 ), #110 ) ;
#112 =( GEOMETRIC_REPRESENTATION_CONTEXT ( 3 ) GLOBAL_UNCERTAINTY_ASSIGNED_CONTEXT ( ( #4 ) ) GLOBAL_UNIT_ASSIGNED_CONTEXT ( ( #66, #68, #55 ) ) REPRESENTATION_CONTEXT ( 'NONE', 'WORKASPACE' ) );
#113 = PRODUCT_DEFINITION_FORMATION_WITH_SPECIFIED_SOURCE ( 'ANY', '', #212, .NOT_KNOWN. ) ;
#114 = PRODUCT_DEFINITION ( 'UNKNOWN', '', #113, #213 ) ;
#115 = PRESENTATION_LAYER_ASSIGNMENT (  '', '', ( #134 ) ) ;
#116 = PRESENTATION_LAYER_ASSIGNMENT (  '', '', ( #117 ) ) ;
#117 = STYLED_ITEM ( 'NONE', ( #151 ), #5 ) ;
#118 = EDGE_CURVE ( 'NONE', #181, #198, #148, .T. ) ;
#119 = EDGE_CURVE ( 'NONE', #170, #206, #150, .T. ) ;
#120 = EDGE_CURVE ( 'NONE', #170, #205, #144, .T. ) ;
#121 = PRODUCT_RELATED_PRODUCT_CATEGORY ( 'part', '', ( #212 ) ) ;
#122 = EDGE_CURVE ( 'NONE', #205, #163, #175, .T. ) ;
#123 = EDGE_CURVE ( 'NONE', #206, #163, #161, .T. ) ;
#124 = EDGE_CURVE ( 'NONE', #206, #170, #200, .T. ) ;
#125 = EDGE_CURVE ( 'NONE', #173, #181, #146, .T. ) ;
#126 = EDGE_CURVE ( 'NONE', #173, #194, #197, .T. ) ;
#127 = EDGE_CURVE ( 'NONE', #163, #205, #159, .T. ) ;
#128 = EDGE_CURVE ( 'NONE', #194, #198, #168, .T. ) ;
#129 =( GEOMETRIC_REPRESENTATION_CONTEXT ( 3 ) GLOBAL_UNCERTAINTY_ASSIGNED_CONTEXT ( ( #3 ) ) GLOBAL_UNIT_ASSIGNED_CONTEXT ( ( #24, #26, #50 ) ) REPRESENTATION_CONTEXT ( 'NONE', 'WORKASPACE' ) );
#130 = EDGE_CURVE ( 'NONE', #181, #173, #208, .T. ) ;
#131 = EDGE_CURVE ( 'NONE', #198, #194, #199, .T. ) ;
#132 = AXIS2_PLACEMENT_3D ( 'NONE', #94, #95, #96 ) ;
#133 = MECHANICAL_DESIGN_GEOMETRIC_PRESENTATION_REPRESENTATION (  '', ( #134 ), #112 ) ;
#134 = STYLED_ITEM ( 'NONE', ( #192 ), #1 ) ;
#135 = AXIS2_PLACEMENT_3D ( 'NONE', #21, #58, #39 ) ;
#136 = FACE_OUTER_BOUND ( 'NONE', #179, .T. ) ;
#137 = VECTOR ( 'NONE', #45, 1000.000000000000000 ) ;
#138 = FACE_OUTER_BOUND ( 'NONE', #154, .T. ) ;
#139 = VECTOR ( 'NONE', #51, 1000.000000000000000 ) ;
#140 = FACE_OUTER_BOUND ( 'NONE', #172, .T. ) ;
#141 = FACE_OUTER_BOUND ( 'NONE', #210, .T. ) ;
#142 = FACE_BOUND ( 'NONE', #183, .T. ) ;
#143 = CYLINDRICAL_SURFACE ( 'NONE', #102, 13.99999999999999800 ) ;
#144 = LINE ( 'NONE', #42, #149 ) ;
#145 = FACE_OUTER_BOUND ( 'NONE', #155, .T. ) ;
#146 = CIRCLE ( 'NONE', #99, 13.99999999999999800 ) ;
#147 = EDGE_LOOP ( 'NONE', ( #191, #165, #169, #177 ) ) ;
#148 = LINE ( 'NONE', #49, #137 ) ;
#149 = VECTOR ( 'NONE', #48, 1000.000000000000000 ) ;
#150 = CIRCLE ( 'NONE', #108, 15.00000000000000000 ) ;
#151 = PRESENTATION_STYLE_ASSIGNMENT (( #17 ) ) ;
#152 = COLOUR_RGB ( '',0.6470588235294118000, 0.6196078431372549200, 0.5882352941176470800 ) ;
#153 = SHAPE_DEFINITION_REPRESENTATION ( #214, #1 ) ;
#154 = EDGE_LOOP ( 'NONE', ( #211, #209, #187, #190 ) ) ;
#155 = EDGE_LOOP ( 'NONE', ( #158, #207 ) ) ;
#156 = EDGE_LOOP ( 'NONE', ( #164, #178 ) ) ;
#157 = ORIENTED_EDGE ( 'NONE', *, *, #120, .T. ) ;
#158 = ORIENTED_EDGE ( 'NONE', *, *, #127, .F. ) ;
#159 = CIRCLE ( 'NONE', #98, 15.00000000000000000 ) ;
#160 = ORIENTED_EDGE ( 'NONE', *, *, #126, .T. ) ;
#161 = LINE ( 'NONE', #57, #139 ) ;
#162 = ORIENTED_EDGE ( 'NONE', *, *, #119, .F. ) ;
#163 = VERTEX_POINT ( 'NONE', #65 ) ;
#164 = ORIENTED_EDGE ( 'NONE', *, *, #130, .F. ) ;
#165 = ORIENTED_EDGE ( 'NONE', *, *, #124, .F. ) ;
#166 = ORIENTED_EDGE ( 'NONE', *, *, #124, .T. ) ;
#167 = ORIENTED_EDGE ( 'NONE', *, *, #119, .T. ) ;
#168 = CIRCLE ( 'NONE', #97, 13.99999999999999800 ) ;
#169 = ORIENTED_EDGE ( 'NONE', *, *, #123, .T. ) ;
#170 = VERTEX_POINT ( 'NONE', #14 ) ;
#171 = ORIENTED_EDGE ( 'NONE', *, *, #122, .T. ) ;
#172 = EDGE_LOOP ( 'NONE', ( #196, #160, #180, #186 ) ) ;
#173 = VERTEX_POINT ( 'NONE', #85 ) ;
#174 = SURFACE_STYLE_FILL_AREA ( #61 ) ;
#175 = CIRCLE ( 'NONE', #105, 15.00000000000000000 ) ;
#176 = CYLINDRICAL_SURFACE ( 'NONE', #103, 13.99999999999999800 ) ;
#177 = ORIENTED_EDGE ( 'NONE', *, *, #127, .T. ) ;
#178 = ORIENTED_EDGE ( 'NONE', *, *, #125, .F. ) ;
#179 = EDGE_LOOP ( 'NONE', ( #162, #157, #171, #185 ) ) ;
#180 = ORIENTED_EDGE ( 'NONE', *, *, #131, .F. ) ;
#181 = VERTEX_POINT ( 'NONE', #15 ) ;
#182 = ORIENTED_EDGE ( 'NONE', *, *, #131, .T. ) ;
#183 = EDGE_LOOP ( 'NONE', ( #182, #201 ) ) ;
#184 = CYLINDRICAL_SURFACE ( 'NONE', #104, 15.00000000000000000 ) ;
#185 = ORIENTED_EDGE ( 'NONE', *, *, #123, .F. ) ;
#186 = ORIENTED_EDGE ( 'NONE', *, *, #118, .F. ) ;
#187 = ORIENTED_EDGE ( 'NONE', *, *, #118, .T. ) ;
#188 = SURFACE_STYLE_FILL_AREA ( #86 ) ;
#189 = CYLINDRICAL_SURFACE ( 'NONE', #101, 15.00000000000000000 ) ;
#190 = ORIENTED_EDGE ( 'NONE', *, *, #128, .F. ) ;
#191 = ORIENTED_EDGE ( 'NONE', *, *, #120, .F. ) ;
#192 = PRESENTATION_STYLE_ASSIGNMENT (( #62 ) ) ;
#193 = FACE_BOUND ( 'NONE', #156, .T. ) ;
#194 = VERTEX_POINT ( 'NONE', #18 ) ;
#195 = CLOSED_SHELL ( 'NONE', ( #9, #8, #7, #6, #11, #10 ) ) ;
#196 = ORIENTED_EDGE ( 'NONE', *, *, #130, .T. ) ;
#197 = LINE ( 'NONE', #72, #204 ) ;
#198 = VERTEX_POINT ( 'NONE', #93 ) ;
#199 = CIRCLE ( 'NONE', #106, 13.99999999999999800 ) ;
#200 = CIRCLE ( 'NONE', #100, 15.00000000000000000 ) ;
#201 = ORIENTED_EDGE ( 'NONE', *, *, #128, .T. ) ;
#202 = FACE_OUTER_BOUND ( 'NONE', #147, .T. ) ;
#203 = COLOUR_RGB ( '',0.6470588235294118000, 0.6196078431372549200, 0.5882352941176470800 ) ;
#204 = VECTOR ( 'NONE', #73, 1000.000000000000000 ) ;
#205 = VERTEX_POINT ( 'NONE', #91 ) ;
#206 = VERTEX_POINT ( 'NONE', #16 ) ;
#207 = ORIENTED_EDGE ( 'NONE', *, *, #122, .F. ) ;
#208 = CIRCLE ( 'NONE', #132, 13.99999999999999800 ) ;
#209 = ORIENTED_EDGE ( 'NONE', *, *, #125, .T. ) ;
#210 = EDGE_LOOP ( 'NONE', ( #166, #167 ) ) ;
#211 = ORIENTED_EDGE ( 'NONE', *, *, #126, .F. ) ;
#212 = PRODUCT ( '092013a300', '092013a300', '', ( #80 ) ) ;
#213 = PRODUCT_DEFINITION_CONTEXT ( 'detailed design', #64, 'design' ) ;
#214 = PRODUCT_DEFINITION_SHAPE ( 'NONE', 'NONE',  #114 ) ;
ENDSEC;
END-ISO-10303-21;
