ISO-10303-21;
HEADER;
FILE_DESCRIPTION (( 'STEP AP214' ),
    '1' );
FILE_NAME ('092013a200.STEP',
    '2012-11-13T12:27:01',
    ( '' ),
    ( '' ),
    'SwSTEP 2.0',
    'SolidWorks 2012',
    '' );
FILE_SCHEMA (( 'AUTOMOTIVE_DESIGN' ));
ENDSEC;

DATA;
#1 = UNCERTAINTY_MEASURE_WITH_UNIT (LENGTH_MEASURE( 1.000000000000000100E-005 ), #32, 'distance_accuracy_value', 'NONE');
#2 = MANIFOLD_SOLID_BREP ( 'Linear austragen1', #136 ) ;
#3 = UNCERTAINTY_MEASURE_WITH_UNIT (LENGTH_MEASURE( 1.000000000000000100E-005 ), #59, 'distance_accuracy_value', 'NONE');
#4 = ADVANCED_BREP_SHAPE_REPRESENTATION ( '092013a200', ( #2, #114 ), #128 ) ;
#5 = UNCERTAINTY_MEASURE_WITH_UNIT (LENGTH_MEASURE( 1.000000000000000100E-005 ), #14, 'distance_accuracy_value', 'NONE');
#6 = ADVANCED_FACE ( 'NONE', ( #149, #159 ), #83, .T. ) ;
#7 = ADVANCED_FACE ( 'NONE', ( #175, #144 ), #58, .F. ) ;
#8 = ADVANCED_FACE ( 'NONE', ( #154 ), #173, .T. ) ;
#9 = ADVANCED_FACE ( 'NONE', ( #177 ), #160, .F. ) ;
#10 = ADVANCED_FACE ( 'NONE', ( #196 ), #161, .T. ) ;
#11 = ADVANCED_FACE ( 'NONE', ( #200 ), #176, .F. ) ;
#12 = DIRECTION ( 'NONE',  ( 1.000000000000000000, 0.0000000000000000000, 0.0000000000000000000 ) ) ;
#13 = CARTESIAN_POINT ( 'NONE',  ( 0.0000000000000000000, 0.0000000000000000000, 100.0000000000000000 ) ) ;
#14 =( LENGTH_UNIT ( ) NAMED_UNIT ( * ) SI_UNIT ( .MILLI., .METRE. ) );
#15 = DIRECTION ( 'NONE',  ( 0.0000000000000000000, 0.0000000000000000000, 1.000000000000000000 ) ) ;
#16 = CARTESIAN_POINT ( 'NONE',  ( 0.0000000000000000000, 0.0000000000000000000, 100.0000000000000000 ) ) ;
#17 = DIRECTION ( 'NONE',  ( 1.000000000000000000, 0.0000000000000000000, -0.0000000000000000000 ) ) ;
#18 = CARTESIAN_POINT ( 'NONE',  ( 0.0000000000000000000, 0.0000000000000000000, -100.0000000000000000 ) ) ;
#19 = DIRECTION ( 'NONE',  ( -1.000000000000000000, 0.0000000000000000000, 0.0000000000000000000 ) ) ;
#20 = CARTESIAN_POINT ( 'NONE',  ( 0.0000000000000000000, 0.0000000000000000000, 100.0000000000000000 ) ) ;
#21 = DIRECTION ( 'NONE',  ( 0.0000000000000000000, 0.0000000000000000000, 1.000000000000000000 ) ) ;
#22 = DIRECTION ( 'NONE',  ( 1.000000000000000000, 0.0000000000000000000, -0.0000000000000000000 ) ) ;
#23 = DIRECTION ( 'NONE',  ( 1.000000000000000000, 0.0000000000000000000, 0.0000000000000000000 ) ) ;
#24 = CARTESIAN_POINT ( 'NONE',  ( 13.99999999999999800, 1.714505518806294400E-015, 100.0000000000000000 ) ) ;
#25 = DIRECTION ( 'NONE',  ( -1.000000000000000000, 0.0000000000000000000, 0.0000000000000000000 ) ) ;
#26 = DIRECTION ( 'NONE',  ( 0.0000000000000000000, 0.0000000000000000000, 1.000000000000000000 ) ) ;
#27 =( NAMED_UNIT ( * ) PLANE_ANGLE_UNIT ( ) SI_UNIT ( $, .RADIAN. ) );
#28 = CARTESIAN_POINT ( 'NONE',  ( -15.00000000000000000, 0.0000000000000000000, 100.0000000000000000 ) ) ;
#29 = FILL_AREA_STYLE_COLOUR ( '', #151 ) ;
#30 = SURFACE_STYLE_USAGE ( .BOTH. , #88 ) ;
#31 = CARTESIAN_POINT ( 'NONE',  ( 13.99999999999999800, 1.714505518806294400E-015, 100.0000000000000000 ) ) ;
#32 =( LENGTH_UNIT ( ) NAMED_UNIT ( * ) SI_UNIT ( .MILLI., .METRE. ) );
#33 = CARTESIAN_POINT ( 'NONE',  ( 15.00000000000000000, 1.836970198721029600E-015, -100.0000000000000000 ) ) ;
#34 = DIRECTION ( 'NONE',  ( 0.0000000000000000000, 0.0000000000000000000, 1.000000000000000000 ) ) ;
#35 = FILL_AREA_STYLE ('',( #29 ) ) ;
#36 = CARTESIAN_POINT ( 'NONE',  ( 0.0000000000000000000, 0.0000000000000000000, 100.0000000000000000 ) ) ;
#37 = DIRECTION ( 'NONE',  ( 1.000000000000000000, 0.0000000000000000000, 0.0000000000000000000 ) ) ;
#38 = DIRECTION ( 'NONE',  ( 1.000000000000000000, 0.0000000000000000000, 0.0000000000000000000 ) ) ;
#39 = DIRECTION ( 'NONE',  ( 0.0000000000000000000, 0.0000000000000000000, 1.000000000000000000 ) ) ;
#40 =( NAMED_UNIT ( * ) SI_UNIT ( $, .STERADIAN. ) SOLID_ANGLE_UNIT ( ) );
#41 =( NAMED_UNIT ( * ) SI_UNIT ( $, .STERADIAN. ) SOLID_ANGLE_UNIT ( ) );
#42 = DIRECTION ( 'NONE',  ( 1.000000000000000000, 0.0000000000000000000, 0.0000000000000000000 ) ) ;
#43 = APPLICATION_CONTEXT ( 'automotive_design' ) ;
#44 = DIRECTION ( 'NONE',  ( 1.000000000000000000, 0.0000000000000000000, 0.0000000000000000000 ) ) ;
#45 = DIRECTION ( 'NONE',  ( -1.000000000000000000, 0.0000000000000000000, 0.0000000000000000000 ) ) ;
#46 =( NAMED_UNIT ( * ) PLANE_ANGLE_UNIT ( ) SI_UNIT ( $, .RADIAN. ) );
#47 = CARTESIAN_POINT ( 'NONE',  ( 0.0000000000000000000, 0.0000000000000000000, 0.0000000000000000000 ) ) ;
#48 = DIRECTION ( 'NONE',  ( 0.0000000000000000000, 0.0000000000000000000, 1.000000000000000000 ) ) ;
#49 = CARTESIAN_POINT ( 'NONE',  ( 0.0000000000000000000, 0.0000000000000000000, 100.0000000000000000 ) ) ;
#50 = DIRECTION ( 'NONE',  ( 0.0000000000000000000, 0.0000000000000000000, 1.000000000000000000 ) ) ;
#51 = CARTESIAN_POINT ( 'NONE',  ( -13.99999999999999800, 0.0000000000000000000, -100.0000000000000000 ) ) ;
#52 = CARTESIAN_POINT ( 'NONE',  ( 15.00000000000000000, 1.836970198721029600E-015, 100.0000000000000000 ) ) ;
#53 = DIRECTION ( 'NONE',  ( -0.0000000000000000000, -0.0000000000000000000, -1.000000000000000000 ) ) ;
#54 = CARTESIAN_POINT ( 'NONE',  ( 0.0000000000000000000, 0.0000000000000000000, 100.0000000000000000 ) ) ;
#55 = DIRECTION ( 'NONE',  ( -0.0000000000000000000, -0.0000000000000000000, -1.000000000000000000 ) ) ;
#56 = CARTESIAN_POINT ( 'NONE',  ( 0.0000000000000000000, 0.0000000000000000000, 100.0000000000000000 ) ) ;
#57 = DIRECTION ( 'NONE',  ( -0.0000000000000000000, -0.0000000000000000000, -1.000000000000000000 ) ) ;
#58 = PLANE ( 'NONE',  #130 ) ;
#59 =( LENGTH_UNIT ( ) NAMED_UNIT ( * ) SI_UNIT ( .MILLI., .METRE. ) );
#60 = DIRECTION ( 'NONE',  ( 1.000000000000000000, 0.0000000000000000000, 0.0000000000000000000 ) ) ;
#61 = DIRECTION ( 'NONE',  ( -0.0000000000000000000, -0.0000000000000000000, -1.000000000000000000 ) ) ;
#62 = DIRECTION ( 'NONE',  ( 0.0000000000000000000, 0.0000000000000000000, 1.000000000000000000 ) ) ;
#63 = CARTESIAN_POINT ( 'NONE',  ( 13.99999999999999800, 1.714505518806294400E-015, -100.0000000000000000 ) ) ;
#64 = CARTESIAN_POINT ( 'NONE',  ( -13.99999999999999800, 0.0000000000000000000, 100.0000000000000000 ) ) ;
#65 = CARTESIAN_POINT ( 'NONE',  ( 0.0000000000000000000, 0.0000000000000000000, -100.0000000000000000 ) ) ;
#66 = DIRECTION ( 'NONE',  ( 1.000000000000000000, 0.0000000000000000000, 0.0000000000000000000 ) ) ;
#67 = DIRECTION ( 'NONE',  ( -0.0000000000000000000, -0.0000000000000000000, -1.000000000000000000 ) ) ;
#68 = APPLICATION_PROTOCOL_DEFINITION ( 'draft international standard', 'automotive_design', 1998, #43 ) ;
#69 = SURFACE_STYLE_USAGE ( .BOTH. , #81 ) ;
#70 = CARTESIAN_POINT ( 'NONE',  ( -13.99999999999999800, 0.0000000000000000000, 100.0000000000000000 ) ) ;
#71 = CARTESIAN_POINT ( 'NONE',  ( 0.0000000000000000000, 0.0000000000000000000, 100.0000000000000000 ) ) ;
#72 = DIRECTION ( 'NONE',  ( 1.000000000000000000, 0.0000000000000000000, 0.0000000000000000000 ) ) ;
#73 = DIRECTION ( 'NONE',  ( -0.0000000000000000000, -0.0000000000000000000, -1.000000000000000000 ) ) ;
#74 = APPLICATION_PROTOCOL_DEFINITION ( 'draft international standard', 'automotive_design', 1998, #94 ) ;
#75 = DIRECTION ( 'NONE',  ( -1.000000000000000000, 0.0000000000000000000, 0.0000000000000000000 ) ) ;
#76 = DIRECTION ( 'NONE',  ( -0.0000000000000000000, -0.0000000000000000000, -1.000000000000000000 ) ) ;
#77 = DIRECTION ( 'NONE',  ( -0.0000000000000000000, -0.0000000000000000000, -1.000000000000000000 ) ) ;
#78 = FILL_AREA_STYLE ('',( #91 ) ) ;
#79 = CARTESIAN_POINT ( 'NONE',  ( 0.0000000000000000000, 0.0000000000000000000, 100.0000000000000000 ) ) ;
#80 = CARTESIAN_POINT ( 'NONE',  ( 0.0000000000000000000, 0.0000000000000000000, -100.0000000000000000 ) ) ;
#81 = SURFACE_SIDE_STYLE ('',( #202 ) ) ;
#82 = DIRECTION ( 'NONE',  ( 0.0000000000000000000, 0.0000000000000000000, 1.000000000000000000 ) ) ;
#83 = PLANE ( 'NONE',  #103 ) ;
#84 = CARTESIAN_POINT ( 'NONE',  ( 0.0000000000000000000, 0.0000000000000000000, -100.0000000000000000 ) ) ;
#85 = CARTESIAN_POINT ( 'NONE',  ( -15.00000000000000000, 0.0000000000000000000, -100.0000000000000000 ) ) ;
#86 =( NAMED_UNIT ( * ) SI_UNIT ( $, .STERADIAN. ) SOLID_ANGLE_UNIT ( ) );
#87 = DIRECTION ( 'NONE',  ( 0.0000000000000000000, 0.0000000000000000000, 1.000000000000000000 ) ) ;
#88 = SURFACE_SIDE_STYLE ('',( #205 ) ) ;
#89 = DIRECTION ( 'NONE',  ( 0.0000000000000000000, 0.0000000000000000000, 1.000000000000000000 ) ) ;
#90 = CARTESIAN_POINT ( 'NONE',  ( 15.00000000000000000, 1.836970198721029600E-015, 100.0000000000000000 ) ) ;
#91 = FILL_AREA_STYLE_COLOUR ( '', #137 ) ;
#92 =( NAMED_UNIT ( * ) PLANE_ANGLE_UNIT ( ) SI_UNIT ( $, .RADIAN. ) );
#93 = PRODUCT_CONTEXT ( 'NONE', #43, 'mechanical' ) ;
#94 = APPLICATION_CONTEXT ( 'automotive_design' ) ;
#95 = CARTESIAN_POINT ( 'NONE',  ( -15.00000000000000000, 0.0000000000000000000, 100.0000000000000000 ) ) ;
#96 = CARTESIAN_POINT ( 'NONE',  ( 0.0000000000000000000, 0.0000000000000000000, -100.0000000000000000 ) ) ;
#97 = AXIS2_PLACEMENT_3D ( 'NONE', #13, #89, #72 ) ;
#98 = AXIS2_PLACEMENT_3D ( 'NONE', #54, #26, #42 ) ;
#99 = STYLED_ITEM ( 'NONE', ( #179 ), #4 ) ;
#100 = PRODUCT_DEFINITION ( 'UNKNOWN', '', #117, #213 ) ;
#101 = EDGE_CURVE ( 'NONE', #156, #147, #174, .T. ) ;
#102 = MECHANICAL_DESIGN_GEOMETRIC_PRESENTATION_REPRESENTATION (  '', ( #119 ), #135 ) ;
#103 = AXIS2_PLACEMENT_3D ( 'NONE', #79, #87, #22 ) ;
#104 = AXIS2_PLACEMENT_3D ( 'NONE', #65, #34, #23 ) ;
#105 = PRODUCT_RELATED_PRODUCT_CATEGORY ( 'part', '', ( #212 ) ) ;
#106 = AXIS2_PLACEMENT_3D ( 'NONE', #56, #57, #25 ) ;
#107 = EDGE_CURVE ( 'NONE', #165, #170, #190, .T. ) ;
#108 = EDGE_CURVE ( 'NONE', #156, #138, #189, .T. ) ;
#109 = AXIS2_PLACEMENT_3D ( 'NONE', #96, #39, #12 ) ;
#110 = EDGE_CURVE ( 'NONE', #165, #191, #139, .T. ) ;
#111 = AXIS2_PLACEMENT_3D ( 'NONE', #18, #21, #60 ) ;
#112 = PRESENTATION_LAYER_ASSIGNMENT (  '', '', ( #119 ) ) ;
#113 = EDGE_CURVE ( 'NONE', #170, #167, #195, .T. ) ;
#114 = AXIS2_PLACEMENT_3D ( 'NONE', #47, #62, #44 ) ;
#115 = EDGE_CURVE ( 'NONE', #191, #167, #193, .T. ) ;
#116 = AXIS2_PLACEMENT_3D ( 'NONE', #49, #50, #66 ) ;
#117 = PRODUCT_DEFINITION_FORMATION_WITH_SPECIFIED_SOURCE ( 'ANY', '', #212, .NOT_KNOWN. ) ;
#118 = PRESENTATION_LAYER_ASSIGNMENT (  '', '', ( #99 ) ) ;
#119 = STYLED_ITEM ( 'NONE', ( #142 ), #2 ) ;
#120 = EDGE_CURVE ( 'NONE', #167, #170, #152, .T. ) ;
#121 = EDGE_CURVE ( 'NONE', #191, #165, #198, .T. ) ;
#122 = AXIS2_PLACEMENT_3D ( 'NONE', #16, #48, #38 ) ;
#123 = EDGE_CURVE ( 'NONE', #147, #206, #163, .T. ) ;
#124 = EDGE_CURVE ( 'NONE', #138, #206, #208, .T. ) ;
#125 = MECHANICAL_DESIGN_GEOMETRIC_PRESENTATION_REPRESENTATION (  '', ( #99 ), #131 ) ;
#126 = AXIS2_PLACEMENT_3D ( 'NONE', #71, #73, #45 ) ;
#127 = EDGE_CURVE ( 'NONE', #147, #156, #209, .T. ) ;
#128 =( GEOMETRIC_REPRESENTATION_CONTEXT ( 3 ) GLOBAL_UNCERTAINTY_ASSIGNED_CONTEXT ( ( #1 ) ) GLOBAL_UNIT_ASSIGNED_CONTEXT ( ( #32, #27, #40 ) ) REPRESENTATION_CONTEXT ( 'NONE', 'WORKASPACE' ) );
#129 = EDGE_CURVE ( 'NONE', #206, #138, #181, .T. ) ;
#130 = AXIS2_PLACEMENT_3D ( 'NONE', #80, #82, #17 ) ;
#131 =( GEOMETRIC_REPRESENTATION_CONTEXT ( 3 ) GLOBAL_UNCERTAINTY_ASSIGNED_CONTEXT ( ( #5 ) ) GLOBAL_UNIT_ASSIGNED_CONTEXT ( ( #14, #46, #86 ) ) REPRESENTATION_CONTEXT ( 'NONE', 'WORKASPACE' ) );
#132 = AXIS2_PLACEMENT_3D ( 'NONE', #84, #15, #37 ) ;
#133 = AXIS2_PLACEMENT_3D ( 'NONE', #20, #67, #75 ) ;
#134 = AXIS2_PLACEMENT_3D ( 'NONE', #36, #77, #19 ) ;
#135 =( GEOMETRIC_REPRESENTATION_CONTEXT ( 3 ) GLOBAL_UNCERTAINTY_ASSIGNED_CONTEXT ( ( #3 ) ) GLOBAL_UNIT_ASSIGNED_CONTEXT ( ( #59, #92, #41 ) ) REPRESENTATION_CONTEXT ( 'NONE', 'WORKASPACE' ) );
#136 = CLOSED_SHELL ( 'NONE', ( #11, #10, #6, #7, #8, #9 ) ) ;
#137 = COLOUR_RGB ( '',0.6470588235294118000, 0.6196078431372549200, 0.5882352941176470800 ) ;
#138 = VERTEX_POINT ( 'NONE', #51 ) ;
#139 = CIRCLE ( 'NONE', #97, 15.00000000000000000 ) ;
#140 = ORIENTED_EDGE ( 'NONE', *, *, #108, .T. ) ;
#141 = ORIENTED_EDGE ( 'NONE', *, *, #110, .F. ) ;
#142 = PRESENTATION_STYLE_ASSIGNMENT (( #69 ) ) ;
#143 = ORIENTED_EDGE ( 'NONE', *, *, #124, .F. ) ;
#144 = FACE_BOUND ( 'NONE', #185, .T. ) ;
#145 = EDGE_LOOP ( 'NONE', ( #180, #153 ) ) ;
#146 = EDGE_LOOP ( 'NONE', ( #178, #171, #140, #194 ) ) ;
#147 = VERTEX_POINT ( 'NONE', #31 ) ;
#148 = ORIENTED_EDGE ( 'NONE', *, *, #115, .F. ) ;
#149 = FACE_OUTER_BOUND ( 'NONE', #184, .T. ) ;
#150 = ORIENTED_EDGE ( 'NONE', *, *, #121, .F. ) ;
#151 = COLOUR_RGB ( '',0.6470588235294118000, 0.6196078431372549200, 0.5882352941176470800 ) ;
#152 = CIRCLE ( 'NONE', #132, 15.00000000000000000 ) ;
#153 = ORIENTED_EDGE ( 'NONE', *, *, #127, .F. ) ;
#154 = FACE_OUTER_BOUND ( 'NONE', #155, .T. ) ;
#155 = EDGE_LOOP ( 'NONE', ( #201, #150, #158, #207 ) ) ;
#156 = VERTEX_POINT ( 'NONE', #64 ) ;
#157 = VECTOR ( 'NONE', #76, 1000.000000000000000 ) ;
#158 = ORIENTED_EDGE ( 'NONE', *, *, #115, .T. ) ;
#159 = FACE_BOUND ( 'NONE', #145, .T. ) ;
#160 = CYLINDRICAL_SURFACE ( 'NONE', #134, 13.99999999999999800 ) ;
#161 = CYLINDRICAL_SURFACE ( 'NONE', #126, 15.00000000000000000 ) ;
#162 = ORIENTED_EDGE ( 'NONE', *, *, #120, .F. ) ;
#163 = LINE ( 'NONE', #24, #197 ) ;
#164 = ORIENTED_EDGE ( 'NONE', *, *, #123, .T. ) ;
#165 = VERTEX_POINT ( 'NONE', #52 ) ;
#166 = EDGE_LOOP ( 'NONE', ( #162, #187 ) ) ;
#167 = VERTEX_POINT ( 'NONE', #85 ) ;
#168 = ORIENTED_EDGE ( 'NONE', *, *, #107, .T. ) ;
#169 = EDGE_LOOP ( 'NONE', ( #182, #164, #143, #186 ) ) ;
#170 = VERTEX_POINT ( 'NONE', #33 ) ;
#171 = ORIENTED_EDGE ( 'NONE', *, *, #127, .T. ) ;
#172 = ORIENTED_EDGE ( 'NONE', *, *, #124, .T. ) ;
#173 = CYLINDRICAL_SURFACE ( 'NONE', #106, 15.00000000000000000 ) ;
#174 = CIRCLE ( 'NONE', #122, 13.99999999999999800 ) ;
#175 = FACE_OUTER_BOUND ( 'NONE', #166, .T. ) ;
#176 = CYLINDRICAL_SURFACE ( 'NONE', #133, 13.99999999999999800 ) ;
#177 = FACE_OUTER_BOUND ( 'NONE', #146, .T. ) ;
#178 = ORIENTED_EDGE ( 'NONE', *, *, #123, .F. ) ;
#179 = PRESENTATION_STYLE_ASSIGNMENT (( #30 ) ) ;
#180 = ORIENTED_EDGE ( 'NONE', *, *, #101, .F. ) ;
#181 = CIRCLE ( 'NONE', #104, 13.99999999999999800 ) ;
#182 = ORIENTED_EDGE ( 'NONE', *, *, #101, .T. ) ;
#183 = ORIENTED_EDGE ( 'NONE', *, *, #110, .T. ) ;
#184 = EDGE_LOOP ( 'NONE', ( #204, #183 ) ) ;
#185 = EDGE_LOOP ( 'NONE', ( #172, #188 ) ) ;
#186 = ORIENTED_EDGE ( 'NONE', *, *, #108, .F. ) ;
#187 = ORIENTED_EDGE ( 'NONE', *, *, #113, .F. ) ;
#188 = ORIENTED_EDGE ( 'NONE', *, *, #129, .T. ) ;
#189 = LINE ( 'NONE', #70, #210 ) ;
#190 = LINE ( 'NONE', #90, #157 ) ;
#191 = VERTEX_POINT ( 'NONE', #95 ) ;
#192 = ORIENTED_EDGE ( 'NONE', *, *, #113, .T. ) ;
#193 = LINE ( 'NONE', #28, #199 ) ;
#194 = ORIENTED_EDGE ( 'NONE', *, *, #129, .F. ) ;
#195 = CIRCLE ( 'NONE', #109, 15.00000000000000000 ) ;
#196 = FACE_OUTER_BOUND ( 'NONE', #203, .T. ) ;
#197 = VECTOR ( 'NONE', #61, 1000.000000000000000 ) ;
#198 = CIRCLE ( 'NONE', #116, 15.00000000000000000 ) ;
#199 = VECTOR ( 'NONE', #55, 1000.000000000000000 ) ;
#200 = FACE_OUTER_BOUND ( 'NONE', #169, .T. ) ;
#201 = ORIENTED_EDGE ( 'NONE', *, *, #107, .F. ) ;
#202 = SURFACE_STYLE_FILL_AREA ( #78 ) ;
#203 = EDGE_LOOP ( 'NONE', ( #141, #168, #192, #148 ) ) ;
#204 = ORIENTED_EDGE ( 'NONE', *, *, #121, .T. ) ;
#205 = SURFACE_STYLE_FILL_AREA ( #35 ) ;
#206 = VERTEX_POINT ( 'NONE', #63 ) ;
#207 = ORIENTED_EDGE ( 'NONE', *, *, #120, .T. ) ;
#208 = CIRCLE ( 'NONE', #111, 13.99999999999999800 ) ;
#209 = CIRCLE ( 'NONE', #98, 13.99999999999999800 ) ;
#210 = VECTOR ( 'NONE', #53, 1000.000000000000000 ) ;
#211 = SHAPE_DEFINITION_REPRESENTATION ( #214, #4 ) ;
#212 = PRODUCT ( '092013a200', '092013a200', '', ( #93 ) ) ;
#213 = PRODUCT_DEFINITION_CONTEXT ( 'detailed design', #94, 'design' ) ;
#214 = PRODUCT_DEFINITION_SHAPE ( 'NONE', 'NONE',  #100 ) ;
ENDSEC;
END-ISO-10303-21;
