ISO-10303-21;
HEADER;
FILE_DESCRIPTION (( 'STEP AP214' ),
    '1' );
FILE_NAME ('092013a.2000.STEP',
    '2013-01-25T07:00:04',
    ( '' ),
    ( '' ),
    'SwSTEP 2.0',
    'SolidWorks 2012',
    '' );
FILE_SCHEMA (( 'AUTOMOTIVE_DESIGN' ));
ENDSEC;

DATA;
#1 = UNCERTAINTY_MEASURE_WITH_UNIT (LENGTH_MEASURE( 1.000000000000000100E-005 ), #90, 'distance_accuracy_value', 'NONE');
#2 = UNCERTAINTY_MEASURE_WITH_UNIT (LENGTH_MEASURE( 1.000000000000000100E-005 ), #29, 'distance_accuracy_value', 'NONE');
#3 = ADVANCED_BREP_SHAPE_REPRESENTATION ( '092013a.2000', ( #214, #99 ), #104 ) ;
#4 = UNCERTAINTY_MEASURE_WITH_UNIT (LENGTH_MEASURE( 1.000000000000000100E-005 ), #87, 'distance_accuracy_value', 'NONE');
#5 = PRODUCT_DEFINITION_CONTEXT ( 'detailed design', #52, 'design' ) ;
#6 = PRODUCT_DEFINITION_SHAPE ( 'NONE', 'NONE',  #98 ) ;
#7 = DIRECTION ( 'NONE',  ( 0.0000000000000000000, 0.0000000000000000000, 1.000000000000000000 ) ) ;
#8 = CARTESIAN_POINT ( 'NONE',  ( 0.0000000000000000000, 0.0000000000000000000, -1000.000000000000000 ) ) ;
#9 = DIRECTION ( 'NONE',  ( -0.0000000000000000000, -0.0000000000000000000, -1.000000000000000000 ) ) ;
#10 = APPLICATION_CONTEXT ( 'automotive_design' ) ;
#11 = PLANE ( 'NONE',  #118 ) ;
#12 = DIRECTION ( 'NONE',  ( -1.000000000000000000, 0.0000000000000000000, 0.0000000000000000000 ) ) ;
#13 = CARTESIAN_POINT ( 'NONE',  ( 0.0000000000000000000, 0.0000000000000000000, 1000.000000000000000 ) ) ;
#14 = DIRECTION ( 'NONE',  ( -1.000000000000000000, 0.0000000000000000000, 0.0000000000000000000 ) ) ;
#15 = DIRECTION ( 'NONE',  ( 1.000000000000000000, 0.0000000000000000000, -0.0000000000000000000 ) ) ;
#16 = CARTESIAN_POINT ( 'NONE',  ( 0.0000000000000000000, 0.0000000000000000000, 1000.000000000000000 ) ) ;
#17 = APPLICATION_PROTOCOL_DEFINITION ( 'draft international standard', 'automotive_design', 1998, #10 ) ;
#18 = CARTESIAN_POINT ( 'NONE',  ( 0.0000000000000000000, 0.0000000000000000000, 1000.000000000000000 ) ) ;
#19 =( NAMED_UNIT ( * ) SI_UNIT ( $, .STERADIAN. ) SOLID_ANGLE_UNIT ( ) );
#20 = CARTESIAN_POINT ( 'NONE',  ( 0.0000000000000000000, 0.0000000000000000000, 1000.000000000000000 ) ) ;
#21 = CARTESIAN_POINT ( 'NONE',  ( 0.0000000000000000000, 0.0000000000000000000, 1000.000000000000000 ) ) ;
#22 = FILL_AREA_STYLE_COLOUR ( '', #211 ) ;
#23 = SURFACE_SIDE_STYLE ('',( #189 ) ) ;
#24 = DIRECTION ( 'NONE',  ( 0.0000000000000000000, 0.0000000000000000000, 1.000000000000000000 ) ) ;
#25 = DIRECTION ( 'NONE',  ( -0.0000000000000000000, -0.0000000000000000000, -1.000000000000000000 ) ) ;
#26 = SURFACE_STYLE_USAGE ( .BOTH. , #23 ) ;
#27 = FILL_AREA_STYLE ('',( #22 ) ) ;
#28 = CARTESIAN_POINT ( 'NONE',  ( 0.0000000000000000000, 0.0000000000000000000, 1000.000000000000000 ) ) ;
#29 =( LENGTH_UNIT ( ) NAMED_UNIT ( * ) SI_UNIT ( .MILLI., .METRE. ) );
#30 = DIRECTION ( 'NONE',  ( 0.0000000000000000000, 0.0000000000000000000, 1.000000000000000000 ) ) ;
#31 = DIRECTION ( 'NONE',  ( 1.000000000000000000, 0.0000000000000000000, 0.0000000000000000000 ) ) ;
#32 = PLANE ( 'NONE',  #120 ) ;
#33 =( NAMED_UNIT ( * ) PLANE_ANGLE_UNIT ( ) SI_UNIT ( $, .RADIAN. ) );
#34 = CARTESIAN_POINT ( 'NONE',  ( -15.00000000000000000, 0.0000000000000000000, 1000.000000000000000 ) ) ;
#35 = CARTESIAN_POINT ( 'NONE',  ( 0.0000000000000000000, 0.0000000000000000000, 1000.000000000000000 ) ) ;
#36 = DIRECTION ( 'NONE',  ( 0.0000000000000000000, 0.0000000000000000000, 1.000000000000000000 ) ) ;
#37 = DIRECTION ( 'NONE',  ( 1.000000000000000000, 0.0000000000000000000, 0.0000000000000000000 ) ) ;
#38 = DIRECTION ( 'NONE',  ( -0.0000000000000000000, -0.0000000000000000000, -1.000000000000000000 ) ) ;
#39 =( NAMED_UNIT ( * ) SI_UNIT ( $, .STERADIAN. ) SOLID_ANGLE_UNIT ( ) );
#40 = CARTESIAN_POINT ( 'NONE',  ( 15.00000000000000000, 1.836970198721029600E-015, 1000.000000000000000 ) ) ;
#41 = CARTESIAN_POINT ( 'NONE',  ( 0.0000000000000000000, 0.0000000000000000000, -1000.000000000000000 ) ) ;
#42 = DIRECTION ( 'NONE',  ( 0.0000000000000000000, 0.0000000000000000000, 1.000000000000000000 ) ) ;
#43 = DIRECTION ( 'NONE',  ( 1.000000000000000000, 0.0000000000000000000, 0.0000000000000000000 ) ) ;
#44 = CARTESIAN_POINT ( 'NONE',  ( 13.99999999999999800, 1.714505518806294400E-015, 1000.000000000000000 ) ) ;
#45 = DIRECTION ( 'NONE',  ( -1.000000000000000000, 0.0000000000000000000, 0.0000000000000000000 ) ) ;
#46 = CARTESIAN_POINT ( 'NONE',  ( 0.0000000000000000000, 0.0000000000000000000, 0.0000000000000000000 ) ) ;
#47 = DIRECTION ( 'NONE',  ( -0.0000000000000000000, -0.0000000000000000000, -1.000000000000000000 ) ) ;
#48 = DIRECTION ( 'NONE',  ( 1.000000000000000000, 0.0000000000000000000, 0.0000000000000000000 ) ) ;
#49 = DIRECTION ( 'NONE',  ( 0.0000000000000000000, 0.0000000000000000000, 1.000000000000000000 ) ) ;
#50 = CARTESIAN_POINT ( 'NONE',  ( -13.99999999999999800, 0.0000000000000000000, 1000.000000000000000 ) ) ;
#51 = PRODUCT_CONTEXT ( 'NONE', #10, 'mechanical' ) ;
#52 = APPLICATION_CONTEXT ( 'automotive_design' ) ;
#53 = DIRECTION ( 'NONE',  ( -0.0000000000000000000, -0.0000000000000000000, -1.000000000000000000 ) ) ;
#54 = CARTESIAN_POINT ( 'NONE',  ( 0.0000000000000000000, 0.0000000000000000000, -1000.000000000000000 ) ) ;
#55 = DIRECTION ( 'NONE',  ( 0.0000000000000000000, 0.0000000000000000000, 1.000000000000000000 ) ) ;
#56 = DIRECTION ( 'NONE',  ( 1.000000000000000000, 0.0000000000000000000, 0.0000000000000000000 ) ) ;
#57 = DIRECTION ( 'NONE',  ( -0.0000000000000000000, -0.0000000000000000000, -1.000000000000000000 ) ) ;
#58 = APPLICATION_PROTOCOL_DEFINITION ( 'draft international standard', 'automotive_design', 1998, #52 ) ;
#59 = CARTESIAN_POINT ( 'NONE',  ( 0.0000000000000000000, 0.0000000000000000000, 1000.000000000000000 ) ) ;
#60 = DIRECTION ( 'NONE',  ( 0.0000000000000000000, 0.0000000000000000000, 1.000000000000000000 ) ) ;
#61 = DIRECTION ( 'NONE',  ( 1.000000000000000000, 0.0000000000000000000, 0.0000000000000000000 ) ) ;
#62 = CARTESIAN_POINT ( 'NONE',  ( -15.00000000000000000, 0.0000000000000000000, 1000.000000000000000 ) ) ;
#63 = CARTESIAN_POINT ( 'NONE',  ( 0.0000000000000000000, 0.0000000000000000000, -1000.000000000000000 ) ) ;
#64 = DIRECTION ( 'NONE',  ( 0.0000000000000000000, 0.0000000000000000000, 1.000000000000000000 ) ) ;
#65 = DIRECTION ( 'NONE',  ( -1.000000000000000000, 0.0000000000000000000, 0.0000000000000000000 ) ) ;
#66 = DIRECTION ( 'NONE',  ( 1.000000000000000000, 0.0000000000000000000, 0.0000000000000000000 ) ) ;
#67 = DIRECTION ( 'NONE',  ( -0.0000000000000000000, -0.0000000000000000000, -1.000000000000000000 ) ) ;
#68 = DIRECTION ( 'NONE',  ( 1.000000000000000000, 0.0000000000000000000, -0.0000000000000000000 ) ) ;
#69 = CARTESIAN_POINT ( 'NONE',  ( -13.99999999999999800, 0.0000000000000000000, 1000.000000000000000 ) ) ;
#70 = CARTESIAN_POINT ( 'NONE',  ( -13.99999999999999800, 0.0000000000000000000, -1000.000000000000000 ) ) ;
#71 = CARTESIAN_POINT ( 'NONE',  ( 0.0000000000000000000, 0.0000000000000000000, 1000.000000000000000 ) ) ;
#72 = DIRECTION ( 'NONE',  ( 0.0000000000000000000, 0.0000000000000000000, 1.000000000000000000 ) ) ;
#73 = DIRECTION ( 'NONE',  ( 1.000000000000000000, 0.0000000000000000000, 0.0000000000000000000 ) ) ;
#74 = CARTESIAN_POINT ( 'NONE',  ( 15.00000000000000000, 1.836970198721029600E-015, -1000.000000000000000 ) ) ;
#75 = CARTESIAN_POINT ( 'NONE',  ( 0.0000000000000000000, 0.0000000000000000000, -1000.000000000000000 ) ) ;
#76 = DIRECTION ( 'NONE',  ( -0.0000000000000000000, -0.0000000000000000000, -1.000000000000000000 ) ) ;
#77 = DIRECTION ( 'NONE',  ( 0.0000000000000000000, 0.0000000000000000000, 1.000000000000000000 ) ) ;
#78 = DIRECTION ( 'NONE',  ( 1.000000000000000000, 0.0000000000000000000, 0.0000000000000000000 ) ) ;
#79 = CARTESIAN_POINT ( 'NONE',  ( 13.99999999999999800, 1.714505518806294400E-015, -1000.000000000000000 ) ) ;
#80 = CARTESIAN_POINT ( 'NONE',  ( 13.99999999999999800, 1.714505518806294400E-015, 1000.000000000000000 ) ) ;
#81 = CARTESIAN_POINT ( 'NONE',  ( -15.00000000000000000, 0.0000000000000000000, -1000.000000000000000 ) ) ;
#82 = FILL_AREA_STYLE_COLOUR ( '', #191 ) ;
#83 = FILL_AREA_STYLE ('',( #82 ) ) ;
#84 = CARTESIAN_POINT ( 'NONE',  ( 15.00000000000000000, 1.836970198721029600E-015, 1000.000000000000000 ) ) ;
#85 = SURFACE_SIDE_STYLE ('',( #178 ) ) ;
#86 = SURFACE_STYLE_USAGE ( .BOTH. , #85 ) ;
#87 =( LENGTH_UNIT ( ) NAMED_UNIT ( * ) SI_UNIT ( .MILLI., .METRE. ) );
#88 =( NAMED_UNIT ( * ) PLANE_ANGLE_UNIT ( ) SI_UNIT ( $, .RADIAN. ) );
#89 =( NAMED_UNIT ( * ) SI_UNIT ( $, .STERADIAN. ) SOLID_ANGLE_UNIT ( ) );
#90 =( LENGTH_UNIT ( ) NAMED_UNIT ( * ) SI_UNIT ( .MILLI., .METRE. ) );
#91 =( NAMED_UNIT ( * ) PLANE_ANGLE_UNIT ( ) SI_UNIT ( $, .RADIAN. ) );
#92 = ADVANCED_FACE ( 'NONE', ( #167 ), #202, .T. ) ;
#93 = ADVANCED_FACE ( 'NONE', ( #206 ), #198, .F. ) ;
#94 = ADVANCED_FACE ( 'NONE', ( #204, #197 ), #32, .T. ) ;
#95 = ADVANCED_FACE ( 'NONE', ( #155 ), #194, .F. ) ;
#96 = ADVANCED_FACE ( 'NONE', ( #205, #193 ), #11, .F. ) ;
#97 = ADVANCED_FACE ( 'NONE', ( #196 ), #187, .T. ) ;
#98 = PRODUCT_DEFINITION ( 'UNKNOWN', '', #117, #5 ) ;
#99 = AXIS2_PLACEMENT_3D ( 'NONE', #46, #24, #48 ) ;
#100 =( GEOMETRIC_REPRESENTATION_CONTEXT ( 3 ) GLOBAL_UNCERTAINTY_ASSIGNED_CONTEXT ( ( #2 ) ) GLOBAL_UNIT_ASSIGNED_CONTEXT ( ( #29, #33, #39 ) ) REPRESENTATION_CONTEXT ( 'NONE', 'WORKASPACE' ) );
#101 = MECHANICAL_DESIGN_GEOMETRIC_PRESENTATION_REPRESENTATION (  '', ( #103 ), #100 ) ;
#102 = PRESENTATION_LAYER_ASSIGNMENT (  '', '', ( #103 ) ) ;
#103 = STYLED_ITEM ( 'NONE', ( #177 ), #3 ) ;
#104 =( GEOMETRIC_REPRESENTATION_CONTEXT ( 3 ) GLOBAL_UNCERTAINTY_ASSIGNED_CONTEXT ( ( #1 ) ) GLOBAL_UNIT_ASSIGNED_CONTEXT ( ( #90, #91, #19 ) ) REPRESENTATION_CONTEXT ( 'NONE', 'WORKASPACE' ) );
#105 =( GEOMETRIC_REPRESENTATION_CONTEXT ( 3 ) GLOBAL_UNCERTAINTY_ASSIGNED_CONTEXT ( ( #4 ) ) GLOBAL_UNIT_ASSIGNED_CONTEXT ( ( #87, #88, #89 ) ) REPRESENTATION_CONTEXT ( 'NONE', 'WORKASPACE' ) );
#106 = MECHANICAL_DESIGN_GEOMETRIC_PRESENTATION_REPRESENTATION (  '', ( #108 ), #105 ) ;
#107 = PRESENTATION_LAYER_ASSIGNMENT (  '', '', ( #108 ) ) ;
#108 = STYLED_ITEM ( 'NONE', ( #180 ), #214 ) ;
#109 = AXIS2_PLACEMENT_3D ( 'NONE', #75, #77, #78 ) ;
#110 = AXIS2_PLACEMENT_3D ( 'NONE', #71, #72, #73 ) ;
#111 = AXIS2_PLACEMENT_3D ( 'NONE', #63, #64, #66 ) ;
#112 = AXIS2_PLACEMENT_3D ( 'NONE', #59, #60, #61 ) ;
#113 = AXIS2_PLACEMENT_3D ( 'NONE', #54, #55, #56 ) ;
#114 = AXIS2_PLACEMENT_3D ( 'NONE', #41, #42, #43 ) ;
#115 = AXIS2_PLACEMENT_3D ( 'NONE', #18, #9, #12 ) ;
#116 = AXIS2_PLACEMENT_3D ( 'NONE', #28, #30, #31 ) ;
#117 = PRODUCT_DEFINITION_FORMATION_WITH_SPECIFIED_SOURCE ( 'ANY', '', #213, .NOT_KNOWN. ) ;
#118 = AXIS2_PLACEMENT_3D ( 'NONE', #8, #7, #15 ) ;
#119 = AXIS2_PLACEMENT_3D ( 'NONE', #21, #67, #45 ) ;
#120 = AXIS2_PLACEMENT_3D ( 'NONE', #20, #49, #68 ) ;
#121 = AXIS2_PLACEMENT_3D ( 'NONE', #13, #57, #65 ) ;
#122 = AXIS2_PLACEMENT_3D ( 'NONE', #16, #76, #14 ) ;
#123 = AXIS2_PLACEMENT_3D ( 'NONE', #35, #36, #37 ) ;
#124 = EDGE_CURVE ( 'NONE', #209, #145, #190, .T. ) ;
#125 = EDGE_CURVE ( 'NONE', #147, #207, #200, .T. ) ;
#126 = EDGE_CURVE ( 'NONE', #145, #208, #192, .T. ) ;
#127 = PRODUCT_RELATED_PRODUCT_CATEGORY ( 'part', '', ( #213 ) ) ;
#128 = EDGE_CURVE ( 'NONE', #149, #208, #195, .T. ) ;
#129 = EDGE_CURVE ( 'NONE', #209, #149, #186, .T. ) ;
#130 = EDGE_CURVE ( 'NONE', #207, #154, #181, .T. ) ;
#131 = EDGE_CURVE ( 'NONE', #147, #148, #212, .T. ) ;
#132 = EDGE_CURVE ( 'NONE', #148, #154, #184, .T. ) ;
#133 = EDGE_CURVE ( 'NONE', #207, #147, #210, .T. ) ;
#134 = EDGE_CURVE ( 'NONE', #154, #148, #188, .T. ) ;
#135 = EDGE_CURVE ( 'NONE', #145, #209, #183, .T. ) ;
#136 = EDGE_CURVE ( 'NONE', #208, #149, #201, .T. ) ;
#137 = ORIENTED_EDGE ( 'NONE', *, *, #136, .F. ) ;
#138 = ORIENTED_EDGE ( 'NONE', *, *, #131, .T. ) ;
#139 = EDGE_LOOP ( 'NONE', ( #137, #168 ) ) ;
#140 = ORIENTED_EDGE ( 'NONE', *, *, #124, .F. ) ;
#141 = ORIENTED_EDGE ( 'NONE', *, *, #132, .T. ) ;
#142 = ORIENTED_EDGE ( 'NONE', *, *, #128, .T. ) ;
#143 = EDGE_LOOP ( 'NONE', ( #161, #173, #159, #165 ) ) ;
#144 = ORIENTED_EDGE ( 'NONE', *, *, #134, .F. ) ;
#145 = VERTEX_POINT ( 'NONE', #62 ) ;
#146 = ORIENTED_EDGE ( 'NONE', *, *, #136, .T. ) ;
#147 = VERTEX_POINT ( 'NONE', #69 ) ;
#148 = VERTEX_POINT ( 'NONE', #70 ) ;
#149 = VERTEX_POINT ( 'NONE', #74 ) ;
#150 = ORIENTED_EDGE ( 'NONE', *, *, #126, .T. ) ;
#151 = ORIENTED_EDGE ( 'NONE', *, *, #135, .T. ) ;
#152 = EDGE_LOOP ( 'NONE', ( #140, #163, #142, #174 ) ) ;
#153 = ORIENTED_EDGE ( 'NONE', *, *, #125, .F. ) ;
#154 = VERTEX_POINT ( 'NONE', #79 ) ;
#155 = FACE_OUTER_BOUND ( 'NONE', #143, .T. ) ;
#156 = ORIENTED_EDGE ( 'NONE', *, *, #135, .F. ) ;
#157 = ORIENTED_EDGE ( 'NONE', *, *, #134, .T. ) ;
#158 = EDGE_LOOP ( 'NONE', ( #151, #162 ) ) ;
#159 = ORIENTED_EDGE ( 'NONE', *, *, #132, .F. ) ;
#160 = ORIENTED_EDGE ( 'NONE', *, *, #133, .F. ) ;
#161 = ORIENTED_EDGE ( 'NONE', *, *, #125, .T. ) ;
#162 = ORIENTED_EDGE ( 'NONE', *, *, #124, .T. ) ;
#163 = ORIENTED_EDGE ( 'NONE', *, *, #129, .T. ) ;
#164 = ORIENTED_EDGE ( 'NONE', *, *, #133, .T. ) ;
#165 = ORIENTED_EDGE ( 'NONE', *, *, #131, .F. ) ;
#166 = CLOSED_SHELL ( 'NONE', ( #95, #92, #94, #96, #97, #93 ) ) ;
#167 = FACE_OUTER_BOUND ( 'NONE', #152, .T. ) ;
#168 = ORIENTED_EDGE ( 'NONE', *, *, #128, .F. ) ;
#169 = EDGE_LOOP ( 'NONE', ( #171, #164, #138, #144 ) ) ;
#170 = ORIENTED_EDGE ( 'NONE', *, *, #129, .F. ) ;
#171 = ORIENTED_EDGE ( 'NONE', *, *, #130, .F. ) ;
#172 = EDGE_LOOP ( 'NONE', ( #141, #157 ) ) ;
#173 = ORIENTED_EDGE ( 'NONE', *, *, #130, .T. ) ;
#174 = ORIENTED_EDGE ( 'NONE', *, *, #126, .F. ) ;
#175 = EDGE_LOOP ( 'NONE', ( #170, #156, #150, #146 ) ) ;
#176 = EDGE_LOOP ( 'NONE', ( #153, #160 ) ) ;
#177 = PRESENTATION_STYLE_ASSIGNMENT (( #26 ) ) ;
#178 = SURFACE_STYLE_FILL_AREA ( #83 ) ;
#179 = VECTOR ( 'NONE', #38, 1000.000000000000000 ) ;
#180 = PRESENTATION_STYLE_ASSIGNMENT (( #86 ) ) ;
#181 = LINE ( 'NONE', #44, #199 ) ;
#182 = SHAPE_DEFINITION_REPRESENTATION ( #6, #3 ) ;
#183 = CIRCLE ( 'NONE', #110, 15.00000000000000000 ) ;
#184 = CIRCLE ( 'NONE', #113, 13.99999999999999800 ) ;
#185 = VECTOR ( 'NONE', #25, 1000.000000000000000 ) ;
#186 = LINE ( 'NONE', #40, #179 ) ;
#187 = CYLINDRICAL_SURFACE ( 'NONE', #115, 15.00000000000000000 ) ;
#188 = CIRCLE ( 'NONE', #111, 13.99999999999999800 ) ;
#189 = SURFACE_STYLE_FILL_AREA ( #27 ) ;
#190 = CIRCLE ( 'NONE', #116, 15.00000000000000000 ) ;
#191 = COLOUR_RGB ( '',0.6470588235294118000, 0.6196078431372549200, 0.5882352941176470800 ) ;
#192 = LINE ( 'NONE', #34, #185 ) ;
#193 = FACE_BOUND ( 'NONE', #172, .T. ) ;
#194 = CYLINDRICAL_SURFACE ( 'NONE', #119, 13.99999999999999800 ) ;
#195 = CIRCLE ( 'NONE', #114, 15.00000000000000000 ) ;
#196 = FACE_OUTER_BOUND ( 'NONE', #175, .T. ) ;
#197 = FACE_BOUND ( 'NONE', #176, .T. ) ;
#198 = CYLINDRICAL_SURFACE ( 'NONE', #121, 13.99999999999999800 ) ;
#199 = VECTOR ( 'NONE', #47, 1000.000000000000000 ) ;
#200 = CIRCLE ( 'NONE', #123, 13.99999999999999800 ) ;
#201 = CIRCLE ( 'NONE', #109, 15.00000000000000000 ) ;
#202 = CYLINDRICAL_SURFACE ( 'NONE', #122, 15.00000000000000000 ) ;
#203 = VECTOR ( 'NONE', #53, 1000.000000000000000 ) ;
#204 = FACE_OUTER_BOUND ( 'NONE', #158, .T. ) ;
#205 = FACE_OUTER_BOUND ( 'NONE', #139, .T. ) ;
#206 = FACE_OUTER_BOUND ( 'NONE', #169, .T. ) ;
#207 = VERTEX_POINT ( 'NONE', #80 ) ;
#208 = VERTEX_POINT ( 'NONE', #81 ) ;
#209 = VERTEX_POINT ( 'NONE', #84 ) ;
#210 = CIRCLE ( 'NONE', #112, 13.99999999999999800 ) ;
#211 = COLOUR_RGB ( '',0.6470588235294118000, 0.6196078431372549200, 0.5882352941176470800 ) ;
#212 = LINE ( 'NONE', #50, #203 ) ;
#213 = PRODUCT ( '092013a.2000', '092013a.2000', '', ( #51 ) ) ;
#214 = MANIFOLD_SOLID_BREP ( 'Linear austragen1', #166 ) ;
ENDSEC;
END-ISO-10303-21;
